  0
SECTION
  2
HEADER
  9
$ACADVER
  1
AC1027
  9
$ACADMAINTVER
 70
     8
  9
$DWGCODEPAGE
  3
ANSI_1252
  9
$REQUIREDVERSIONS
160
                 0
  9
$INSBASE
 10
0.0
 20
0.0
 30
0.0
  9
$EXTMIN
 10
0.0
 20
0.0
 30
0.0
  9
$EXTMAX
 10
5940.0
 20
4200.0
 30
0.0
  9
$LIMMIN
 10
0.0
 20
0.0
  9
$LIMMAX
 10
5940.0
 20
4200.0
  9
$ORTHOMODE
 70
     0
  9
$REGENMODE
 70
     1
  9
$FILLMODE
 70
     1
  9
$QTEXTMODE
 70
     0
  9
$MIRRTEXT
 70
     1
  9
$LTSCALE
 40
20.0
  9
$ATTMODE
 70
     1
  9
$TEXTSIZE
 40
70.0
  9
$TRACEWID
 40
1.0
  9
$TEXTSTYLE
  7
Standard
  9
$CLAYER
  8
0
  9
$CELTYPE
  6
ByLayer
  9
$CECOLOR
 62
   256
  9
$CELTSCALE
 40
1.0
  9
$DISPSILH
 70
     0
  9
$DIMSCALE
 40
1.0
  9
$DIMASZ
 40
50.0
  9
$DIMEXO
 40
0.0
  9
$DIMDLI
 40
3.75
  9
$DIMRND
 40
0.0
  9
$DIMDLE
 40
0.0
  9
$DIMEXE
 40
20.0
  9
$DIMTP
 40
0.0
  9
$DIMTM
 40
0.0
  9
$DIMTXT
 40
60.0
  9
$DIMCEN
 40
2.5
  9
$DIMTSZ
 40
0.0
  9
$DIMTOL
 70
     0
  9
$DIMLIM
 70
     0
  9
$DIMTIH
 70
     1
  9
$DIMTOH
 70
     1
  9
$DIMSE1
 70
     0
  9
$DIMSE2
 70
     0
  9
$DIMTAD
 70
     1
  9
$DIMZIN
 70
     0
  9
$DIMBLK
  1

  9
$DIMASO
 70
     1
  9
$DIMSHO
 70
     1
  9
$DIMPOST
  1

  9
$DIMAPOST
  1

  9
$DIMALT
 70
     0
  9
$DIMALTD
 70
     3
  9
$DIMALTF
 40
0.0393700787
  9
$DIMLFAC
 40
1.0
  9
$DIMTOFL
 70
     1
  9
$DIMTVP
 40
0.0
  9
$DIMTIX
 70
     0
  9
$DIMSOXD
 70
     0
  9
$DIMSAH
 70
     0
  9
$DIMBLK1
  1

  9
$DIMBLK2
  1

  9
$DIMSTYLE
  2
ISO-25
  9
$DIMCLRD
 70
     0
  9
$DIMCLRE
 70
     0
  9
$DIMCLRT
 70
     0
  9
$DIMTFAC
 40
1.0
  9
$DIMGAP
 40
30.0
  9
$DIMJUST
 70
     0
  9
$DIMSD1
 70
     0
  9
$DIMSD2
 70
     0
  9
$DIMTOLJ
 70
     0
  9
$DIMTZIN
 70
     0
  9
$DIMALTZ
 70
     0
  9
$DIMALTTZ
 70
     0
  9
$DIMUPT
 70
     0
  9
$DIMDEC
 70
     1
  9
$DIMTDEC
 70
     1
  9
$DIMALTU
 70
     2
  9
$DIMALTTD
 70
     3
  9
$DIMTXSTY
  7
Standard
  9
$DIMAUNIT
 70
     0
  9
$DIMADEC
 70
     2
  9
$DIMALTRND
 40
0.0
  9
$DIMAZIN
 70
     0
  9
$DIMDSEP
 70
    44
  9
$DIMATFIT
 70
     3
  9
$DIMFRAC
 70
     0
  9
$DIMLDRBLK
  1

  9
$DIMLUNIT
 70
     2
  9
$DIMLWD
 70
    -2
  9
$DIMLWE
 70
    -2
  9
$DIMTMOVE
 70
     0
  9
$DIMFXL
 40
1.0
  9
$DIMFXLON
 70
     0
  9
$DIMJOGANG
 40
0.7853981634
  9
$DIMTFILL
 70
     0
  9
$DIMTFILLCLR
 70
     0
  9
$DIMARCSYM
 70
     0
  9
$DIMLTYPE
  6

  9
$DIMLTEX1
  6

  9
$DIMLTEX2
  6

  9
$DIMTXTDIRECTION
 70
     0
  9
$LUNITS
 70
     2
  9
$LUPREC
 70
     2
  9
$SKETCHINC
 40
1.0
  9
$FILLETRAD
 40
10.0
  9
$AUNITS
 70
     0
  9
$AUPREC
 70
     2
  9
$MENU
  1
.
  9
$ELEVATION
 40
0.0
  9
$PELEVATION
 40
0.0
  9
$THICKNESS
 40
0.0
  9
$LIMCHECK
 70
     0
  9
$CHAMFERA
 40
0.0
  9
$CHAMFERB
 40
0.0
  9
$CHAMFERC
 40
0.0
  9
$CHAMFERD
 40
0.0
  9
$SKPOLY
 70
     0
  9
$TDCREATE
 40
2457270.38496221
  9
$TDUCREATE
 40
2457270.301628877
  9
$TDUPDATE
 40
2457270.384963542
  9
$TDUUPDATE
 40
2457270.301630208
  9
$TDINDWG
 40
0.0000000116
  9
$TDUSRTIMER
 40
0.0000000116
  9
$USRTIMER
 70
     1
  9
$ANGBASE
 50
0.0
  9
$ANGDIR
 70
     0
  9
$PDMODE
 70
     0
  9
$PDSIZE
 40
-1.0
  9
$PLINEWID
 40
0.0
  9
$SPLFRAME
 70
     0
  9
$SPLINETYPE
 70
     6
  9
$SPLINESEGS
 70
     8
  9
$HANDSEED
  5
1FD
  9
$SURFTAB1
 70
     6
  9
$SURFTAB2
 70
     6
  9
$SURFTYPE
 70
     6
  9
$SURFU
 70
     6
  9
$SURFV
 70
     6
  9
$UCSBASE
  2

  9
$UCSNAME
  2

  9
$UCSORG
 10
0.0
 20
0.0
 30
0.0
  9
$UCSXDIR
 10
1.0
 20
0.0
 30
0.0
  9
$UCSYDIR
 10
0.0
 20
1.0
 30
0.0
  9
$UCSORTHOREF
  2

  9
$UCSORTHOVIEW
 70
     0
  9
$UCSORGTOP
 10
0.0
 20
0.0
 30
0.0
  9
$UCSORGBOTTOM
 10
0.0
 20
0.0
 30
0.0
  9
$UCSORGLEFT
 10
0.0
 20
0.0
 30
0.0
  9
$UCSORGRIGHT
 10
0.0
 20
0.0
 30
0.0
  9
$UCSORGFRONT
 10
0.0
 20
0.0
 30
0.0
  9
$UCSORGBACK
 10
0.0
 20
0.0
 30
0.0
  9
$PUCSBASE
  2

  9
$PUCSNAME
  2

  9
$PUCSORG
 10
0.0
 20
0.0
 30
0.0
  9
$PUCSXDIR
 10
1.0
 20
0.0
 30
0.0
  9
$PUCSYDIR
 10
0.0
 20
1.0
 30
0.0
  9
$PUCSORTHOREF
  2

  9
$PUCSORTHOVIEW
 70
     0
  9
$PUCSORGTOP
 10
0.0
 20
0.0
 30
0.0
  9
$PUCSORGBOTTOM
 10
0.0
 20
0.0
 30
0.0
  9
$PUCSORGLEFT
 10
0.0
 20
0.0
 30
0.0
  9
$PUCSORGRIGHT
 10
0.0
 20
0.0
 30
0.0
  9
$PUCSORGFRONT
 10
0.0
 20
0.0
 30
0.0
  9
$PUCSORGBACK
 10
0.0
 20
0.0
 30
0.0
  9
$USERI1
 70
     0
  9
$USERI2
 70
     0
  9
$USERI3
 70
     0
  9
$USERI4
 70
     0
  9
$USERI5
 70
     0
  9
$USERR1
 40
0.0
  9
$USERR2
 40
0.0
  9
$USERR3
 40
0.0
  9
$USERR4
 40
0.0
  9
$USERR5
 40
0.0
  9
$WORLDVIEW
 70
     1
  9
$SHADEDGE
 70
     3
  9
$SHADEDIF
 70
    70
  9
$TILEMODE
 70
     1
  9
$MAXACTVP
 70
    64
  9
$PINSBASE
 10
0.0
 20
0.0
 30
0.0
  9
$PLIMCHECK
 70
     0
  9
$PEXTMIN
 10
1.0000000000E+20
 20
1.0000000000E+20
 30
1.0000000000E+20
  9
$PEXTMAX
 10
-1.0000000000E+20
 20
-1.0000000000E+20
 30
-1.0000000000E+20
  9
$PLIMMIN
 10
0.0
 20
0.0
  9
$PLIMMAX
 10
420.0
 20
297.0
  9
$UNITMODE
 70
     0
  9
$VISRETAIN
 70
     1
  9
$PLINEGEN
 70
     0
  9
$PSLTSCALE
 70
     1
  9
$TREEDEPTH
 70
  3020
  9
$CMLSTYLE
  2
Standard
  9
$CMLJUST
 70
     0
  9
$CMLSCALE
 40
20.0
  9
$PROXYGRAPHICS
 70
     1
  9
$MEASUREMENT
 70
     1
  9
$CELWEIGHT
370
    -1
  9
$ENDCAPS
280
     0
  9
$JOINSTYLE
280
     0
  9
$LWDISPLAY
290
     1
  9
$INSUNITS
 70
     4
  9
$HYPERLINKBASE
  1

  9
$STYLESHEET
  1

  9
$XEDIT
290
     1
  9
$CEPSNTYPE
380
     0
  9
$PSTYLEMODE
290
     1
  9
$FINGERPRINTGUID
  2
{2DC66857-D7BC-40C2-BCDB-C859229DB0DE}
  9
$VERSIONGUID
  2
{FAEB1C32-E019-11D5-929B-00C0DF256EC4}
  9
$EXTNAMES
290
     1
  9
$PSVPSCALE
 40
0.0
  9
$OLESTARTUP
290
     0
  9
$SORTENTS
280
   127
  9
$INDEXCTL
280
     0
  9
$HIDETEXT
280
     1
  9
$XCLIPFRAME
280
     2
  9
$HALOGAP
280
     0
  9
$OBSCOLOR
 70
   257
  9
$OBSLTYPE
280
     0
  9
$INTERSECTIONDISPLAY
280
     0
  9
$INTERSECTIONCOLOR
 70
   257
  9
$DIMASSOC
280
     2
  9
$PROJECTNAME
  1

  9
$CAMERADISPLAY
290
     0
  9
$LENSLENGTH
 40
50.0
  9
$CAMERAHEIGHT
 40
0.0
  9
$STEPSPERSEC
 40
2.0
  9
$STEPSIZE
 40
6.0
  9
$3DDWFPREC
 40
2.0
  9
$PSOLWIDTH
 40
5.0
  9
$PSOLHEIGHT
 40
80.0
  9
$LOFTANG1
 40
1.5707963268
  9
$LOFTANG2
 40
1.5707963268
  9
$LOFTMAG1
 40
0.0
  9
$LOFTMAG2
 40
0.0
  9
$LOFTPARAM
 70
     7
  9
$LOFTNORMALS
280
     1
  9
$LATITUDE
 40
37.795
  9
$LONGITUDE
 40
-122.394
  9
$NORTHDIRECTION
 40
0.0
  9
$TIMEZONE
 70
 -8000
  9
$LIGHTGLYPHDISPLAY
280
     1
  9
$TILEMODELIGHTSYNCH
280
     1
  9
$CMATERIAL
347
44
  9
$SOLIDHIST
280
     0
  9
$SHOWHIST
280
     1
  9
$DWFFRAME
280
     2
  9
$DGNFRAME
280
     2
  9
$REALWORLDSCALE
290
     1
  9
$INTERFERECOLOR
 62
   256
  9
$CSHADOW
280
     0
  9
$SHADOWPLANELOCATION
 40
0.0
  0
ENDSEC
  0
SECTION
  2
CLASSES
  0
CLASS
  1
ACDBDICTIONARYWDFLT
  2
AcDbDictionaryWithDefault
  3
ObjectDBX Classes
 90
        0
 91
        4
280
     0
281
     0
  0
CLASS
  1
VISUALSTYLE
  2
AcDbVisualStyle
  3
ObjectDBX Classes
 90
     4095
 91
        4
280
     0
281
     0
  0
CLASS
  1
MATERIAL
  2
AcDbMaterial
  3
ObjectDBX Classes
 90
     1153
 91
        4
280
     0
281
     0
  0
CLASS
  1
SCALE
  2
AcDbScale
  3
ObjectDBX Classes
 90
     1153
 91
        4
280
     0
281
     0
  0
CLASS
  1
TABLESTYLE
  2
AcDbTableStyle
  3
ObjectDBX Classes
 90
     4095
 91
        4
280
     0
281
     0
  0
CLASS
  1
MLEADERSTYLE
  2
AcDbMLeaderStyle
  3
ACDB_MLEADERSTYLE_CLASS
 90
     4095
 91
        4
280
     0
281
     0
  0
CLASS
  1
SUN
  2
AcDbSun
  3
SCENEOE
 90
     1153
 91
        4
280
     0
281
     0
  0
CLASS
  1
DICTIONARYVAR
  2
AcDbDictionaryVar
  3
ObjectDBX Classes
 90
        0
 91
        4
280
     0
281
     0
  0
CLASS
  1
CELLSTYLEMAP
  2
AcDbCellStyleMap
  3
ObjectDBX Classes
 90
     1152
 91
        4
280
     0
281
     0
  0
ENDSEC
  0
SECTION
  2
TABLES
  0
TABLE
  2
VPORT
  5
8
330
0
100
AcDbSymbolTable
 70
     1
  0
VPORT
  5
29
330
8
100
AcDbSymbolTableRecord
100
AcDbViewportTableRecord
  2
*Active
 70
     0
 10
0.0
 20
0.0
 11
1.0
 21
1.0
 12
2970.0
 22
2100.0
 13
0.0
 23
0.0
 14
10.0
 24
10.0
 15
10.0
 25
10.0
 16
0.0
 26
0.0
 36
1.0
 17
0.0
 27
0.0
 37
0.0
 40
4200.0
 41
1.4142857143
 42
50.0
 43
0.0
 44
0.0
 50
0.0
 51
0.0
 71
     0
 72
  2000
 73
     1
 74
     3
 75
     0
 76
     0
 77
     0
 78
     0
281
     0
 65
     1
110
0.0
120
0.0
130
0.0
111
1.0
121
0.0
131
0.0
112
0.0
122
1.0
132
0.0
 79
     0
146
0.0
 60
     3
 61
     5
292
     1
282
     1
141
0.0
142
0.0
 63
   250
361
6D
  0
ENDTAB
  0
TABLE
  2
LTYPE
  5
5
330
0
100
AcDbSymbolTable
 70
     6
  0
LTYPE
  5
14
330
5
100
AcDbSymbolTableRecord
100
AcDbLinetypeTableRecord
  2
ByBlock
 70
     0
  3

 72
    65
 73
     0
 40
0.0
  0
LTYPE
  5
15
330
5
100
AcDbSymbolTableRecord
100
AcDbLinetypeTableRecord
  2
ByLayer
 70
     0
  3

 72
    65
 73
     0
 40
0.0
  0
LTYPE
  5
16
330
5
100
AcDbSymbolTableRecord
100
AcDbLinetypeTableRecord
  2
Continuous
 70
     0
  3
Solid line
 72
    65
 73
     0
 40
0.0
  0
LTYPE
  5
6E
330
5
100
AcDbSymbolTableRecord
100
AcDbLinetypeTableRecord
  2
HIDDEN
 70
     0
  3
Hidden __ __ __ __ __ __ __ __ __ __ __ __ __ __
 72
    65
 73
     2
 40
1.905
 49
1.27
 74
     0
 49
-0.635
 74
     0
  0
LTYPE
  5
6F
330
5
100
AcDbSymbolTableRecord
100
AcDbLinetypeTableRecord
  2
PHANTOM
 70
     0
  3
Phantom ______  __  __  ______  __  __  ______
 72
    65
 73
     6
 40
12.7
 49
6.35
 74
     0
 49
-1.27
 74
     0
 49
1.27
 74
     0
 49
-1.27
 74
     0
 49
1.27
 74
     0
 49
-1.27
 74
     0
  0
LTYPE
  5
70
330
5
100
AcDbSymbolTableRecord
100
AcDbLinetypeTableRecord
  2
CENTER
 70
     0
  3
Center ____ _ ____ _ ____ _ ____ _ ____ _ ____
 72
    65
 73
     4
 40
10.16
 49
6.35
 74
     0
 49
-1.27
 74
     0
 49
1.27
 74
     0
 49
-1.27
 74
     0
  0
LTYPE
  5
71
330
5
100
AcDbSymbolTableRecord
100
AcDbLinetypeTableRecord
  2
CENTERX2
 70
     0
  3
Center (2x) ________  __  ________  __  _____
 72
    65
 73
     4
 40
20.32
 49
12.7
 74
     0
 49
-2.54
 74
     0
 49
2.54
 74
     0
 49
-2.54
 74
     0
  0
LTYPE
  5
72
330
5
100
AcDbSymbolTableRecord
100
AcDbLinetypeTableRecord
  2
DOT2
 70
     0
  3
Dot (.5x) ........................................
 72
    65
 73
     2
 40
0.635
 49
0.0
 74
     0
 49
-0.635
 74
     0
  0
ENDTAB
  0
TABLE
  2
LAYER
  5
2
330
0
100
AcDbSymbolTable
 70
     2
  0
LAYER
  5
10
330
2
100
AcDbSymbolTableRecord
100
AcDbLayerTableRecord
  2
0
 70
     0
 62
     7
  6
Continuous
370
    -3
390
F
347
46
348
0
  0
LAYER
  5
73
330
2
100
AcDbSymbolTableRecord
100
AcDbLayerTableRecord
  2
FORMAT
 70
     0
 62
     7
  6
Continuous
370
    -3
390
F
347
46
348
0
  0
ENDTAB
  0
TABLE
  2
STYLE
  5
3
330
0
100
AcDbSymbolTable
 70
     2
  0
STYLE
  5
11
330
3
100
AcDbSymbolTableRecord
100
AcDbTextStyleTableRecord
  2
Standard
 70
     0
 40
0.0
 41
1.0
 50
0.0
 71
     0
 42
70.0
  3
txt
  4

  0
STYLE
  5
E7
330
3
100
AcDbSymbolTableRecord
100
AcDbTextStyleTableRecord
  2
SLDTEXTSTYLE0
 70
     0
 40
0.0
 41
0.605
 50
0.0
 71
     0
 42
70.0
  3
TXT
  4

  0
ENDTAB
  0
TABLE
  2
VIEW
  5
6
330
0
100
AcDbSymbolTable
 70
     0
  0
ENDTAB
  0
TABLE
  2
UCS
  5
7
330
0
100
AcDbSymbolTable
 70
     0
  0
ENDTAB
  0
TABLE
  2
APPID
  5
9
330
0
100
AcDbSymbolTable
 70
     1
  0
APPID
  5
12
330
9
100
AcDbSymbolTableRecord
100
AcDbRegAppTableRecord
  2
ACAD
 70
     0
  0
ENDTAB
  0
TABLE
  2
DIMSTYLE
  5
A
330
0
100
AcDbSymbolTable
 70
     1
100
AcDbDimStyleTable
  0
DIMSTYLE
105
27
330
A
100
AcDbSymbolTableRecord
100
AcDbDimStyleTableRecord
  2
ISO-25
 70
     0
 41
2.5
 42
0.625
 43
3.75
 44
1.25
 73
     0
 74
     0
 77
     1
 78
     8
140
2.5
141
2.5
143
0.0393700787
147
0.625
171
     3
172
     1
178
     0
271
     2
272
     2
274
     3
278
    44
283
     0
284
     8
340
11
  0
ENDTAB
  0
TABLE
  2
BLOCK_RECORD
  5
1
330
0
100
AcDbSymbolTable
 70
     3
  0
BLOCK_RECORD
  5
1F
330
1
100
AcDbSymbolTableRecord
100
AcDbBlockTableRecord
  2
*Model_Space
340
22
 70
     0
280
     1
281
     0
  0
BLOCK_RECORD
  5
1B
330
1
100
AcDbSymbolTableRecord
100
AcDbBlockTableRecord
  2
*Paper_Space
340
1E
 70
     0
280
     1
281
     0
  0
BLOCK_RECORD
  5
23
330
1
100
AcDbSymbolTableRecord
100
AcDbBlockTableRecord
  2
*Paper_Space0
340
26
 70
     0
280
     1
281
     0
  0
BLOCK_RECORD
  5
EB
330
1
100
AcDbSymbolTableRecord
100
AcDbBlockTableRecord
  2
SW_NOTE_0
340
0
102
{BLKREFS
331
F0
102
}
 70
     0
280
     1
281
     0
  0
BLOCK_RECORD
  5
F3
330
1
100
AcDbSymbolTableRecord
100
AcDbBlockTableRecord
  2
SW_NOTE_1
340
0
102
{BLKREFS
331
F8
102
}
 70
     0
280
     1
281
     0
  0
ENDTAB
  0
ENDSEC
  0
SECTION
  2
BLOCKS
  0
BLOCK
  5
20
330
1F
100
AcDbEntity
  8
0
100
AcDbBlockBegin
  2
*Model_Space
 70
     0
 10
0.0
 20
0.0
 30
0.0
  3
*Model_Space
  1

  0
ENDBLK
  5
21
330
1F
100
AcDbEntity
  8
0
100
AcDbBlockEnd
  0
BLOCK
  5
1C
330
1B
100
AcDbEntity
 67
     1
  8
0
100
AcDbBlockBegin
  2
*Paper_Space
 70
     0
 10
0.0
 20
0.0
 30
0.0
  3
*Paper_Space
  1

  0
ENDBLK
  5
1D
330
1B
100
AcDbEntity
 67
     1
  8
0
100
AcDbBlockEnd
  0
BLOCK
  5
24
330
23
100
AcDbEntity
  8
0
100
AcDbBlockBegin
  2
*Paper_Space0
 70
     0
 10
0.0
 20
0.0
 30
0.0
  3
*Paper_Space0
  1

  0
ENDBLK
  5
25
330
23
100
AcDbEntity
  8
0
100
AcDbBlockEnd
  0
BLOCK
  5
EC
330
EB
100
AcDbEntity
  8
0
100
AcDbBlockBegin
  2
SW_NOTE_0
 70
     0
 10
0.0
 20
0.0
 30
0.0
  3
SW_NOTE_0
  1

  0
MTEXT
  5
EE
330
EB
100
AcDbEntity
  8
0
  6
Continuous
 62
     0
370
     0
100
AcDbMText
 10
0.0
 20
46.4064386318
 30
0.0
 40
36.0
 41
0.0
 46
0.0
 71
     1
 72
     1
  1
Questo disegno e posto sotto la tutela delle vigenti Leggi e non puo essere utilizzato da terze persone se non previa autorizzazione scritta della PEDRALI
  7
SLDTEXTSTYLE0
 73
     1
 44
1.0
  0
MTEXT
  5
EF
330
EB
100
AcDbEntity
  8
0
  6
Continuous
 62
     0
370
     0
100
AcDbMText
 10
2711.0438752174
 20
46.4064386318
 30
0.0
 40
36.0
 41
0.0
 46
0.0
 71
     1
 72
     1
  1
S.p.A.
  7
SLDTEXTSTYLE0
 73
     1
 44
1.0
  0
ENDBLK
  5
ED
330
EB
100
AcDbEntity
  8
0
100
AcDbBlockEnd
  0
BLOCK
  5
F4
330
F3
100
AcDbEntity
  8
0
100
AcDbBlockBegin
  2
SW_NOTE_1
 70
     0
 10
0.0
 20
0.0
 30
0.0
  3
SW_NOTE_1
  1

  0
MTEXT
  5
F6
330
F3
100
AcDbEntity
  8
0
  6
Continuous
 62
     0
370
     0
100
AcDbMText
 10
65.8125
 20
46.4064386318
 30
0.0
 40
36.0
 41
0.0
 46
0.0
 71
     2
 72
     1
  1
SCALA
  7
SLDTEXTSTYLE0
 73
     1
 44
1.0
  0
MTEXT
  5
F7
330
F3
100
AcDbEntity
  8
0
  6
Continuous
 62
     0
370
     0
100
AcDbMText
 10
71.2197080875
 20
-3.2793415293
 30
0.0
 40
74.0833333333
 41
0.0
 46
0.0
 71
     2
 72
     1
  1
1:1
  7
SLDTEXTSTYLE0
 73
     1
 44
1.0
  0
ENDBLK
  5
F5
330
F3
100
AcDbEntity
  8
0
100
AcDbBlockEnd
  0
ENDSEC
  0
SECTION
  2
ENTITIES
  0
HATCH
  5
74
330
1F
100
AcDbEntity
  8
0
  6
Continuous
 62
     7
100
AcDbHatch
 10
0.0
 20
0.0
 30
0.0
210
0.0
220
0.0
230
1.0
  2
SOLID
 70
     1
 71
     0
 91
        2
 92
        0
 93
        6
 72
     1
 10
4680.486452840432
 20
638.6289643494189
 11
4713.29582174489
 21
638.6289643494189
 72
     3
 10
4702.157530314198
 20
663.9118880739095
 11
54.17769369596704
 21
0.0
 40
0.4768529109443384
 50
293.7756995582609
 51
426.2243004403791
 73
     1
 72
     1
 10
4713.295821745578
 20
689.1948117983324
 11
4647.979836622563
 21
689.1948117983324
 72
     1
 10
4647.979836622563
 20
689.1948117983324
 11
4647.979836622563
 21
609.7341943830162
 72
     1
 10
4647.979836622563
 20
609.7341943830162
 11
4680.486452840432
 21
609.7341943830162
 72
     1
 10
4680.486452840432
 20
609.7341943830162
 11
4680.486452840432
 21
638.6289643494189
 97
        0
 92
        0
 93
        6
 72
     3
 10
4700.351607193935
 20
663.9118880739095
 11
19.86515435528302
 21
0.0
 40
0.5895245510672578
 50
316.3365658560252
 51
403.663434144226
 73
     0
 72
     2
 10
4705.847761960841
 20
667.5237343201193
 40
14.44738498508822
 50
69.99121011132742
 51
90.0
 73
     0
 72
     1
 10
4705.847761960841
 20
653.0763493350311
 11
4680.486452839627
 21
653.0763493350311
 72
     1
 10
4680.486452839627
 20
653.0763493350311
 11
4680.486452839627
 21
674.74742681258
 72
     1
 10
4680.486452839627
 20
674.74742681258
 11
4705.847761962023
 21
674.74742681258
 72
     2
 10
4705.847761962023
 20
660.300041830948
 40
14.44738498163223
 50
270.0000000000008
 51
290.0087898889545
 73
     0
 97
        0
 75
     0
 76
     1
 98
        1
 10
0.0
 20
0.0
  0
HATCH
  5
75
330
1F
100
AcDbEntity
  8
0
  6
Continuous
 62
     7
100
AcDbHatch
 10
0.0
 20
0.0
 30
0.0
210
0.0
220
0.0
230
1.0
  2
SOLID
 70
     1
 71
     0
 91
        1
 92
        0
 93
       12
 72
     1
 10
4871.914303896247
 20
689.19481179508
 11
4763.558916507592
 21
689.19481179508
 72
     1
 10
4763.558916507592
 20
689.19481179508
 11
4763.558916507592
 21
609.7341943797641
 72
     1
 10
4763.558916507592
 20
609.7341943797641
 11
4871.914303896247
 21
609.7341943797641
 72
     1
 10
4871.914303896247
 20
609.7341943797641
 11
4871.914303896247
 21
624.1815793593399
 72
     1
 10
4871.914303896247
 20
624.1815793593399
 11
4799.677378970356
 21
624.1815793593399
 72
     1
 10
4799.677378970356
 20
624.1815793593399
 11
4799.677378970356
 21
642.2408105907215
 72
     1
 10
4799.677378970356
 20
642.2408105907215
 11
4864.690611406459
 21
642.2408105907215
 72
     1
 10
4864.690611406459
 20
642.2408105907215
 11
4864.690611406459
 21
656.68819557721
 72
     1
 10
4864.690611406459
 20
656.68819557721
 11
4799.677378970356
 21
656.68819557721
 72
     1
 10
4799.677378970356
 20
656.68819557721
 11
4799.677378970356
 21
674.7474268085915
 72
     1
 10
4799.677378970356
 20
674.7474268085915
 11
4871.914303896247
 21
674.7474268085915
 72
     1
 10
4871.914303896247
 20
674.7474268085915
 11
4871.914303896247
 21
689.19481179508
 97
        0
 75
     0
 76
     1
 98
        1
 10
0.0
 20
0.0
  0
HATCH
  5
76
330
1F
100
AcDbEntity
  8
0
  6
Continuous
 62
     7
100
AcDbHatch
 10
0.0
 20
0.0
 30
0.0
210
0.0
220
0.0
230
1.0
  2
SOLID
 70
     1
 71
     0
 91
        1
 92
        0
 93
        6
 72
     1
 10
5290.888468480091
 20
689.1948117991719
 11
5254.770006017327
 21
689.1948117991719
 72
     1
 10
5254.770006017327
 20
689.1948117991719
 11
5254.770006017327
 21
609.7341943838558
 72
     1
 10
5254.770006017327
 20
609.7341943838558
 11
5352.2898546713
 21
609.7341943838558
 72
     1
 10
5352.2898546713
 20
609.7341943838558
 11
5352.2898546713
 21
627.7934256152379
 72
     1
 10
5352.2898546713
 20
627.7934256152379
 11
5290.888468480091
 21
627.7934256152379
 72
     1
 10
5290.888468480091
 20
627.7934256152379
 11
5290.888468480091
 21
689.1948117991719
 97
        0
 75
     0
 76
     1
 98
        1
 10
0.0
 20
0.0
  0
HATCH
  5
77
330
1F
100
AcDbEntity
  8
0
  6
Continuous
 62
     7
100
AcDbHatch
 10
0.0
 20
0.0
 30
0.0
210
0.0
220
0.0
230
1.0
  2
SOLID
 70
     1
 71
     0
 91
        1
 92
        0
 93
        4
 72
     1
 10
5355.901700914674
 20
689.1948117983318
 11
5355.901700914674
 21
609.7341943830158
 72
     1
 10
5355.901700914674
 20
609.7341943830158
 11
5392.020163377438
 21
609.7341943830158
 72
     1
 10
5392.020163377438
 20
609.7341943830158
 11
5392.020163377438
 21
689.1948117983318
 72
     1
 10
5392.020163377438
 20
689.1948117983318
 11
5355.901700914674
 21
689.1948117983318
 97
        0
 75
     0
 76
     1
 98
        1
 10
0.0
 20
0.0
  0
HATCH
  5
78
330
1F
100
AcDbEntity
  8
0
  6
Continuous
 62
     7
100
AcDbHatch
 10
0.0
 20
0.0
 30
0.0
210
0.0
220
0.0
230
1.0
  2
SOLID
 70
     1
 71
     0
 91
        2
 92
        0
 93
        4
 72
     3
 10
4936.927536330169
 20
649.4645030852395
 11
57.78953994231173
 21
0.0
 40
0.6929224243374513
 50
280.2934314618138
 51
439.7065685387129
 73
     1
 72
     1
 10
4944.143052003127
 20
689.1948117951631
 11
4879.13799639333
 21
689.1948117951627
 72
     1
 10
4879.13799639333
 20
689.1948117951627
 11
4879.13799639333
 21
609.7341943753481
 72
     1
 10
4879.13799639333
 20
609.7341943753481
 11
4944.143052003497
 21
609.7341943753481
 97
        0
 92
        0
 93
        6
 72
     2
 10
4945.894345535996
 20
649.4645030843616
 40
21.67107747996031
 50
56.16906508602374
 51
90.0
 73
     0
 72
     1
 10
4945.894345535996
 20
627.7934256044016
 11
4911.64461260632
 21
627.7934256044016
 72
     1
 10
4911.64461260632
 20
627.7934256044016
 11
4911.64461260632
 21
671.135580565399
 72
     1
 10
4911.64461260632
 20
671.135580565399
 11
4945.894345535996
 21
671.135580565399
 72
     2
 10
4945.894345535996
 20
649.4645030843616
 40
21.67107748103741
 50
270.0000000000008
 51
303.8314447476077
 73
     0
 72
     3
 10
4924.286074475221
 20
649.4645030852395
 11
45.14807808009225
 21
0.0
 40
0.5985848325441405
 50
331.8713554011807
 51
388.1288999924611
 73
     0
 97
        0
 75
     0
 76
     1
 98
        1
 10
0.0
 20
0.0
  0
HATCH
  5
79
330
1F
100
AcDbEntity
  8
0
  6
Continuous
 62
     7
100
AcDbHatch
 10
0.0
 20
0.0
 30
0.0
210
0.0
220
0.0
230
1.0
  2
SOLID
 70
     1
 71
     0
 91
        3
 92
        0
 93
       19
 72
     1
 10
5117.740404385225
 20
629.5419159173709
 11
5120.711069301436
 21
617.9353088365406
 72
     2
 10
5130.907133275157
 20
620.228767934766
 40
10.45082174718682
 50
192.6768785101394
 51
204.7368873206736
 73
     1
 72
     1
 10
5121.415289755726
 20
615.855601828372
 11
5168.085696104947
 21
689.1948117991719
 72
     1
 10
5168.085696104947
 20
689.1948117991719
 11
5204.204158567712
 21
689.1948117991719
 72
     1
 10
5204.204158567712
 20
689.1948117991719
 11
5254.770006017327
 21
609.7341943838558
 72
     1
 10
5254.770006017327
 20
609.7341943838558
 11
5218.651543554198
 21
609.7341943838558
 72
     1
 10
5218.651543554198
 20
609.7341943838558
 11
5210.524889499912
 21
624.181579363432
 72
     1
 10
5210.524889499912
 20
624.181579363432
 11
5161.764965172743
 21
624.181579363432
 72
     1
 10
5161.764965172743
 20
624.181579363432
 11
5153.638311118458
 21
609.7341943838558
 72
     1
 10
5153.638311118458
 20
609.7341943838558
 11
5092.236924926212
 21
609.7341943838558
 72
     1
 10
5092.236924926212
 20
609.7341943838558
 11
5092.236924926212
 21
624.1815793653088
 72
     2
 10
5077.789539939723
 20
624.1815793653088
 40
14.44738498648845
 50
0.0
 51
90.0
 73
     1
 72
     1
 10
5077.789539939723
 20
638.6289643517968
 11
5041.671077476595
 21
638.6289643517968
 72
     1
 10
5041.671077476595
 20
638.6289643517968
 11
5041.671077476595
 21
609.7341943857328
 72
     1
 10
5041.671077476595
 20
609.7341943857328
 11
5009.164461258726
 21
609.7341943857328
 72
     1
 10
5009.164461258726
 20
609.7341943857328
 11
5009.164461258726
 21
689.1948118010488
 72
     1
 10
5009.164461258726
 20
689.1948118010488
 11
5084.038516611573
 21
689.1948118010488
 72
     3
 10
5076.059895413838
 20
665.8728041645936
 11
48.65333245070325
 21
0.0
 40
0.4859291160023137
 50
288.8861745463018
 51
398.6942257036357
 73
     0
 72
     2
 10
5098.075169859168
 20
625.9255921416673
 40
19.99498053551239
 50
279.2678272406082
 51
349.5800515720779
 73
     0
 97
        0
 92
        0
 93
        3
 72
     1
 10
5186.144927334808
 20
667.5237343188037
 11
5169.891619225873
 21
638.6289643458279
 72
     1
 10
5169.891619225873
 20
638.6289643458279
 11
5202.398235443744
 21
638.6289643458279
 72
     1
 10
5202.398235443744
 20
638.6289643458279
 11
5186.144927334808
 21
667.5237343188037
 97
        0
 92
        0
 93
        6
 72
     2
 10
5076.956344837342
 20
663.9118880748573
 40
10.83553874042872
 50
270.0000000000008
 51
305.5869104965606
 73
     1
 72
     3
 10
5065.148078082111
 20
663.9118880739095
 11
23.47700060163493
 21
0.0
 40
0.5900077182209745
 50
334.058541690378
 51
385.9414583083995
 73
     1
 72
     2
 10
5076.956344837342
 20
663.9118880748573
 40
10.83553873888645
 50
54.41308949502037
 51
90.0
 73
     1
 72
     1
 10
5076.956344837342
 20
674.7474268137444
 11
5041.671077475436
 21
674.7474268137444
 72
     1
 10
5041.671077475436
 20
674.7474268137444
 11
5041.671077475436
 21
653.076349334428
 72
     1
 10
5041.671077475436
 20
653.076349334428
 11
5076.956344837342
 21
653.0763493344286
 97
        0
 75
     0
 76
     1
 98
        1
 10
0.0
 20
0.0
  0
LINE
  5
7A
330
1F
100
AcDbEntity
  8
0
  6
Continuous
 62
     7
370
    15
100
AcDbLine
 10
5740.0
 20
200.0
 30
0.0
 11
5740.0
 21
4000.0
 31
0.0
  0
LINE
  5
7B
330
1F
100
AcDbEntity
  8
0
  6
Continuous
 62
   250
420
  1644836
370
     0
100
AcDbLine
 10
4647.9798366226
 20
689.1948117983
 30
0.0
 11
4647.9798366226
 21
609.734194383
 31
0.0
  0
LINE
  5
7C
330
1F
100
AcDbEntity
  8
0
  6
Continuous
 62
   250
420
  1644836
370
     0
100
AcDbLine
 10
4647.9798366226
 20
689.1948117983
 30
0.0
 11
4713.2958217456
 21
689.1948117983
 31
0.0
  0
LINE
  5
7D
330
1F
100
AcDbEntity
  8
0
  6
Continuous
 62
   250
420
  1644836
370
     0
100
AcDbLine
 10
4647.9798366226
 20
609.734194383
 30
0.0
 11
4680.4864528404
 21
609.734194383
 31
0.0
  0
LINE
  5
7E
330
1F
100
AcDbEntity
  8
0
  6
Continuous
 62
   250
420
  1644836
370
     0
100
AcDbLine
 10
4680.4864528404
 20
609.734194383
 30
0.0
 11
4680.4864528404
 21
638.6289643494
 31
0.0
  0
LINE
  5
7F
330
1F
100
AcDbEntity
  8
0
  6
Continuous
 62
   250
420
  1644836
370
     0
100
AcDbLine
 10
4713.2958217449
 20
638.6289643494
 30
0.0
 11
4680.4864528404
 21
638.6289643494
 31
0.0
  0
LINE
  5
80
330
1F
100
AcDbEntity
  8
0
  6
Continuous
 62
   250
420
  1644836
370
     0
100
AcDbLine
 10
4680.4864528396
 20
653.076349335
 30
0.0
 11
4680.4864528396
 21
674.7474268126
 31
0.0
  0
LINE
  5
81
330
1F
100
AcDbEntity
  8
0
  6
Continuous
 62
   250
420
  1644836
370
     0
100
AcDbLine
 10
4680.4864528396
 20
674.7474268126
 30
0.0
 11
4705.847761962
 21
674.7474268126
 31
0.0
  0
LINE
  5
82
330
1F
100
AcDbEntity
  8
0
  6
Continuous
 62
   250
420
  1644836
370
     0
100
AcDbLine
 10
4680.4864528396
 20
653.076349335
 30
0.0
 11
4705.8477619608
 21
653.076349335
 31
0.0
  0
LINE
  5
83
330
1F
100
AcDbEntity
  8
0
  6
Continuous
 62
   250
420
  1644836
370
     0
100
AcDbLine
 10
4763.5589165076
 20
689.1948117951
 30
0.0
 11
4871.9143038962
 21
689.1948117951
 31
0.0
  0
LINE
  5
84
330
1F
100
AcDbEntity
  8
0
  6
Continuous
 62
   250
420
  1644836
370
     0
100
AcDbLine
 10
4871.9143038962
 20
689.1948117951
 30
0.0
 11
4871.9143038962
 21
674.7474268086
 31
0.0
  0
LINE
  5
85
330
1F
100
AcDbEntity
  8
0
  6
Continuous
 62
   250
420
  1644836
370
     0
100
AcDbLine
 10
4871.9143038962
 20
674.7474268086
 30
0.0
 11
4799.6773789704
 21
674.7474268086
 31
0.0
  0
LINE
  5
86
330
1F
100
AcDbEntity
  8
0
  6
Continuous
 62
   250
420
  1644836
370
     0
100
AcDbLine
 10
4799.6773789704
 20
674.7474268086
 30
0.0
 11
4799.6773789704
 21
656.6881955772
 31
0.0
  0
LINE
  5
87
330
1F
100
AcDbEntity
  8
0
  6
Continuous
 62
   250
420
  1644836
370
     0
100
AcDbLine
 10
4799.6773789704
 20
656.6881955772
 30
0.0
 11
4864.6906114065
 21
656.6881955772
 31
0.0
  0
LINE
  5
88
330
1F
100
AcDbEntity
  8
0
  6
Continuous
 62
   250
420
  1644836
370
     0
100
AcDbLine
 10
4864.6906114065
 20
656.6881955772
 30
0.0
 11
4864.6906114065
 21
642.2408105907
 31
0.0
  0
LINE
  5
89
330
1F
100
AcDbEntity
  8
0
  6
Continuous
 62
   250
420
  1644836
370
     0
100
AcDbLine
 10
4864.6906114065
 20
642.2408105907
 30
0.0
 11
4799.6773789704
 21
642.2408105907
 31
0.0
  0
LINE
  5
8A
330
1F
100
AcDbEntity
  8
0
  6
Continuous
 62
   250
420
  1644836
370
     0
100
AcDbLine
 10
4799.6773789704
 20
642.2408105907
 30
0.0
 11
4799.6773789704
 21
624.1815793593
 31
0.0
  0
LINE
  5
8B
330
1F
100
AcDbEntity
  8
0
  6
Continuous
 62
   250
420
  1644836
370
     0
100
AcDbLine
 10
4799.6773789704
 20
624.1815793593
 30
0.0
 11
4871.9143038962
 21
624.1815793593
 31
0.0
  0
LINE
  5
8C
330
1F
100
AcDbEntity
  8
0
  6
Continuous
 62
   250
420
  1644836
370
     0
100
AcDbLine
 10
4871.9143038962
 20
624.1815793593
 30
0.0
 11
4871.9143038962
 21
609.7341943798
 31
0.0
  0
LINE
  5
8D
330
1F
100
AcDbEntity
  8
0
  6
Continuous
 62
   250
420
  1644836
370
     0
100
AcDbLine
 10
4871.9143038962
 20
609.7341943798
 30
0.0
 11
4763.5589165076
 21
609.7341943798
 31
0.0
  0
LINE
  5
8E
330
1F
100
AcDbEntity
  8
0
  6
Continuous
 62
   250
420
  1644836
370
     0
100
AcDbLine
 10
4879.1379963933
 20
689.1948117952
 30
0.0
 11
4879.1379963933
 21
609.7341943753
 31
0.0
  0
LINE
  5
8F
330
1F
100
AcDbEntity
  8
0
  6
Continuous
 62
   250
420
  1644836
370
     0
100
AcDbLine
 10
4879.1379963933
 20
689.1948117952
 30
0.0
 11
4944.1430520031
 21
689.1948117952
 31
0.0
  0
LINE
  5
90
330
1F
100
AcDbEntity
  8
0
  6
Continuous
 62
   250
420
  1644836
370
     0
100
AcDbLine
 10
4944.1430520035
 20
609.7341943753
 30
0.0
 11
4879.1379963933
 21
609.7341943753
 31
0.0
  0
LINE
  5
91
330
1F
100
AcDbEntity
  8
0
  6
Continuous
 62
   250
420
  1644836
370
     0
100
AcDbLine
 10
4911.6446126063
 20
649.4645030807
 30
0.0
 11
4911.6446126063
 21
627.7934256044
 31
0.0
  0
LINE
  5
92
330
1F
100
AcDbEntity
  8
0
  6
Continuous
 62
   250
420
  1644836
370
     0
100
AcDbLine
 10
4911.6446126063
 20
627.7934256044
 30
0.0
 11
4945.894345536
 21
627.7934256044
 31
0.0
  0
LINE
  5
93
330
1F
100
AcDbEntity
  8
0
  6
Continuous
 62
   250
420
  1644836
370
     0
100
AcDbLine
 10
4911.6446126063
 20
649.4645030807
 30
0.0
 11
4911.6446126063
 21
671.1355805654
 31
0.0
  0
LINE
  5
94
330
1F
100
AcDbEntity
  8
0
  6
Continuous
 62
   250
420
  1644836
370
     0
100
AcDbLine
 10
4911.6446126063
 20
671.1355805654
 30
0.0
 11
4945.894345536
 21
671.1355805654
 31
0.0
  0
LINE
  5
95
330
1F
100
AcDbEntity
  8
0
  6
Continuous
 62
   250
420
  1644836
370
     0
100
AcDbLine
 10
5009.1644612587
 20
689.194811801
 30
0.0
 11
5009.1644612587
 21
609.7341943857
 31
0.0
  0
LINE
  5
96
330
1F
100
AcDbEntity
  8
0
  6
Continuous
 62
     7
370
     0
100
AcDbLine
 10
5457.5979895016
 20
560.0000000008
 30
0.0
 11
5457.5979895016
 21
380.0000000004
 31
0.0
  0
LINE
  5
97
330
1F
100
AcDbEntity
  8
0
  6
Continuous
 62
   250
420
  1644836
370
     0
100
AcDbLine
 10
5009.1644612587
 20
609.7341943857
 30
0.0
 11
5041.6710774766
 21
609.7341943857
 31
0.0
  0
LINE
  5
98
330
1F
100
AcDbEntity
  8
0
  6
Continuous
 62
   250
420
  1644836
370
     0
100
AcDbLine
 10
5041.6710774766
 20
609.7341943857
 30
0.0
 11
5041.6710774766
 21
638.6289643518
 31
0.0
  0
LINE
  5
99
330
1F
100
AcDbEntity
  8
0
  6
Continuous
 62
   250
420
  1644836
370
     0
100
AcDbLine
 10
5041.6710774766
 20
638.6289643518
 30
0.0
 11
5077.7895399397
 21
638.6289643518
 31
0.0
  0
LINE
  5
9A
330
1F
100
AcDbEntity
  8
0
  6
Continuous
 62
   250
420
  1644836
370
     0
100
AcDbLine
 10
5092.2369249262
 20
624.1815793653
 30
0.0
 11
5092.2369249262
 21
609.7341943839
 31
0.0
  0
LINE
  5
9B
330
1F
100
AcDbEntity
  8
0
  6
Continuous
 62
   250
420
  1644836
370
     0
100
AcDbLine
 10
5041.6710774754
 20
653.0763493344
 30
0.0
 11
5041.6710774754
 21
674.7474268137
 31
0.0
  0
LINE
  5
9C
330
1F
100
AcDbEntity
  8
0
  6
Continuous
 62
   250
420
  1644836
370
     0
100
AcDbLine
 10
5041.6710774754
 20
674.7474268137
 30
0.0
 11
5076.9563448373
 21
674.7474268137
 31
0.0
  0
LINE
  5
9D
330
1F
100
AcDbEntity
  8
0
  6
Continuous
 62
   250
420
  1644836
370
     0
100
AcDbLine
 10
5041.6710774754
 20
653.0763493344
 30
0.0
 11
5076.9563448373
 21
653.0763493344
 31
0.0
  0
LINE
  5
9E
330
1F
100
AcDbEntity
  8
0
  6
Continuous
 62
   250
420
  1644836
370
     0
100
AcDbLine
 10
5117.7404043852
 20
629.5419159174
 30
0.0
 11
5120.7110693014
 21
617.9353088365
 31
0.0
  0
LINE
  5
9F
330
1F
100
AcDbEntity
  8
0
  6
Continuous
 62
     7
370
    15
100
AcDbLine
 10
5740.0
 20
4000.0
 30
0.0
 11
200.0
 21
4000.0
 31
0.0
  0
LINE
  5
A0
330
1F
100
AcDbEntity
  8
0
  6
Continuous
 62
     7
370
     0
100
AcDbLine
 10
5457.5979895016
 20
380.0000000004
 30
0.0
 11
5457.5979895016
 21
200.0
 31
0.0
  0
LINE
  5
A1
330
1F
100
AcDbEntity
  8
0
  6
Continuous
 62
     7
370
    15
100
AcDbLine
 10
200.0
 20
4000.0
 30
0.0
 11
200.0
 21
200.0
 31
0.0
  0
LINE
  5
A2
330
1F
100
AcDbEntity
  8
0
  6
Continuous
 62
     7
370
    15
100
AcDbLine
 10
4300.0
 20
740.0000000012
 30
0.0
 11
5740.0
 21
740.0000000012
 31
0.0
  0
LINE
  5
A3
330
1F
100
AcDbEntity
  8
0
  6
Continuous
 62
   250
420
  1973790
370
     0
100
AcDbLine
 10
5590.5768253678
 20
320.5576086191
 30
0.0
 11
5526.8365326242
 21
308.1636628079
 31
0.0
  0
LINE
  5
A4
330
1F
100
AcDbEntity
  8
0
  6
Continuous
 62
   250
420
  1973790
370
     0
100
AcDbLine
 10
5642.7011703042
 20
330.9763147815
 30
0.0
 11
5642.7011703042
 21
249.762060236
 31
0.0
  0
LINE
  5
A5
330
1F
100
AcDbEntity
  8
0
  6
Continuous
 62
   250
420
  1973790
370
     0
100
AcDbLine
 10
5590.5768253678
 20
320.5576086191
 30
0.0
 11
5590.5768253678
 21
260.1807663983
 31
0.0
  0
LINE
  5
A6
330
1F
100
AcDbEntity
  8
0
  6
Continuous
 62
     7
370
    15
100
AcDbLine
 10
200.0
 20
200.0
 30
0.0
 11
5740.0
 21
200.0
 31
0.0
  0
LINE
  5
A7
330
1F
100
AcDbEntity
  8
0
  6
Continuous
 62
   250
420
  1973790
370
     0
100
AcDbLine
 10
5526.8365326242
 20
308.1636628079
 30
0.0
 11
5526.8365326242
 21
272.5747122096
 31
0.0
  0
LINE
  5
A8
330
1F
100
AcDbEntity
  8
0
  6
Continuous
 62
   250
420
  1644836
370
     0
100
AcDbLine
 10
5092.2369249262
 20
609.7341943839
 30
0.0
 11
5153.6383111185
 21
609.7341943839
 31
0.0
  0
LINE
  5
A9
330
1F
100
AcDbEntity
  8
0
  6
Continuous
 62
   250
420
  1973790
370
     0
100
AcDbLine
 10
5590.5768253678
 20
260.1807663983
 30
0.0
 11
5526.8365326242
 21
272.5747122096
 31
0.0
  0
LINE
  5
AA
330
1F
100
AcDbEntity
  8
0
  6
CENTERX2
 62
   250
420
  1973790
370
     0
100
AcDbLine
 10
5677.8414248497
 20
290.3691875087
 30
0.0
 11
5518.9037381286
 21
290.3691875087
 31
0.0
  0
LINE
  5
AB
330
1F
100
AcDbEntity
  8
0
  6
Continuous
 62
   250
420
  1644836
370
     0
100
AcDbLine
 10
5009.1644612587
 20
689.194811801
 30
0.0
 11
5084.0385166116
 21
689.194811801
 31
0.0
  0
LINE
  5
AC
330
1F
100
AcDbEntity
  8
0
  6
Continuous
 62
   250
420
  1644836
370
     0
100
AcDbLine
 10
4763.5589165076
 20
689.1948117951
 30
0.0
 11
4763.5589165076
 21
609.7341943798
 31
0.0
  0
LINE
  5
AD
330
1F
100
AcDbEntity
  8
0
  6
Continuous
 62
   250
420
  1644836
370
     0
100
AcDbLine
 10
5168.0856961049
 20
689.1948117992
 30
0.0
 11
5204.2041585677
 21
689.1948117992
 31
0.0
  0
LINE
  5
AE
330
1F
100
AcDbEntity
  8
0
  6
Continuous
 62
   250
420
  1644836
370
     0
100
AcDbLine
 10
5168.0856961049
 20
689.1948117992
 30
0.0
 11
5121.4152897557
 21
615.8556018284
 31
0.0
  0
LINE
  5
AF
330
1F
100
AcDbEntity
  8
0
  6
Continuous
 62
   250
420
  1644836
370
     0
100
AcDbLine
 10
5153.6383111185
 20
609.7341943839
 30
0.0
 11
5161.7649651727
 21
624.1815793634
 31
0.0
  0
LINE
  5
B0
330
1F
100
AcDbEntity
  8
0
  6
Continuous
 62
   250
420
  1644836
370
     0
100
AcDbLine
 10
5186.1449273348
 20
667.5237343188
 30
0.0
 11
5202.3982354437
 21
638.6289643458
 31
0.0
  0
LINE
  5
B1
330
1F
100
AcDbEntity
  8
0
  6
Continuous
 62
   250
420
  1644836
370
     0
100
AcDbLine
 10
5169.8916192259
 20
638.6289643458
 30
0.0
 11
5186.1449273348
 21
667.5237343188
 31
0.0
  0
LINE
  5
B2
330
1F
100
AcDbEntity
  8
0
  6
Continuous
 62
   250
420
  1644836
370
     0
100
AcDbLine
 10
5169.8916192259
 20
638.6289643458
 30
0.0
 11
5202.3982354437
 21
638.6289643458
 31
0.0
  0
LINE
  5
B3
330
1F
100
AcDbEntity
  8
0
  6
Continuous
 62
   250
420
  1644836
370
     0
100
AcDbLine
 10
5161.7649651727
 20
624.1815793634
 30
0.0
 11
5210.5248894999
 21
624.1815793634
 31
0.0
  0
LINE
  5
B4
330
1F
100
AcDbEntity
  8
0
  6
Continuous
 62
   250
420
  1644836
370
     0
100
AcDbLine
 10
5210.5248894999
 20
624.1815793634
 30
0.0
 11
5218.6515435542
 21
609.7341943839
 31
0.0
  0
LINE
  5
B5
330
1F
100
AcDbEntity
  8
0
  6
Continuous
 62
   250
420
  1644836
370
     0
100
AcDbLine
 10
5254.7700060173
 20
689.1948117992
 30
0.0
 11
5254.7700060173
 21
609.7341943839
 31
0.0
  0
LINE
  5
B6
330
1F
100
AcDbEntity
  8
0
  6
Continuous
 62
   250
420
  1644836
370
     0
100
AcDbLine
 10
5204.2041585677
 20
689.1948117992
 30
0.0
 11
5254.7700060173
 21
609.7341943839
 31
0.0
  0
LINE
  5
B7
330
1F
100
AcDbEntity
  8
0
  6
Continuous
 62
   250
420
  1644836
370
     0
100
AcDbLine
 10
5218.6515435542
 20
609.7341943839
 30
0.0
 11
5254.7700060173
 21
609.7341943839
 31
0.0
  0
LINE
  5
B8
330
1F
100
AcDbEntity
  8
0
  6
Continuous
 62
   250
420
  1644836
370
     0
100
AcDbLine
 10
5254.7700060173
 20
609.7341943839
 30
0.0
 11
5352.2898546713
 21
609.7341943839
 31
0.0
  0
LINE
  5
B9
330
1F
100
AcDbEntity
  8
0
  6
Continuous
 62
   250
420
  1644836
370
     0
100
AcDbLine
 10
5352.2898546713
 20
609.7341943839
 30
0.0
 11
5352.2898546713
 21
627.7934256152
 31
0.0
  0
LINE
  5
BA
330
1F
100
AcDbEntity
  8
0
  6
Continuous
 62
   250
420
  1644836
370
     0
100
AcDbLine
 10
5352.2898546713
 20
627.7934256152
 30
0.0
 11
5290.8884684801
 21
627.7934256152
 31
0.0
  0
LINE
  5
BB
330
1F
100
AcDbEntity
  8
0
  6
Continuous
 62
   250
420
  1644836
370
     0
100
AcDbLine
 10
5290.8884684801
 20
627.7934256152
 30
0.0
 11
5290.8884684801
 21
689.1948117992
 31
0.0
  0
LINE
  5
BC
330
1F
100
AcDbEntity
  8
0
  6
Continuous
 62
   250
420
  1644836
370
     0
100
AcDbLine
 10
5254.7700060173
 20
689.1948117992
 30
0.0
 11
5290.8884684801
 21
689.1948117992
 31
0.0
  0
LINE
  5
BD
330
1F
100
AcDbEntity
  8
0
  6
Continuous
 62
   250
420
  1644836
370
     0
100
AcDbLine
 10
5355.9017009147
 20
689.1948117983
 30
0.0
 11
5355.9017009147
 21
609.734194383
 31
0.0
  0
LINE
  5
BE
330
1F
100
AcDbEntity
  8
0
  6
Continuous
 62
   250
420
  1644836
370
     0
100
AcDbLine
 10
5392.0201633774
 20
689.1948117983
 30
0.0
 11
5392.0201633774
 21
609.734194383
 31
0.0
  0
LINE
  5
BF
330
1F
100
AcDbEntity
  8
0
  6
Continuous
 62
   250
420
  1644836
370
     0
100
AcDbLine
 10
5355.9017009147
 20
689.1948117983
 30
0.0
 11
5392.0201633774
 21
689.1948117983
 31
0.0
  0
LINE
  5
C0
330
1F
100
AcDbEntity
  8
0
  6
Continuous
 62
   250
420
  1644836
370
     0
100
AcDbLine
 10
5355.9017009147
 20
609.734194383
 30
0.0
 11
5392.0201633774
 21
609.734194383
 31
0.0
  0
LINE
  5
C1
330
1F
100
AcDbEntity
  8
0
  6
Continuous
 62
   250
420
  1644836
370
     0
100
AcDbLine
 10
5408.2303288482
 20
682.5861108457
 30
0.0
 11
5416.5733759679
 21
682.5861108457
 31
0.0
  0
LINE
  5
C2
330
1F
100
AcDbEntity
  8
0
  6
Continuous
 62
   250
420
  1644836
370
     0
100
AcDbLine
 10
5416.5733759679
 20
677.1683414744
 30
0.0
 11
5408.2303288482
 21
677.1683414744
 31
0.0
  0
LINE
  5
C3
330
1F
100
AcDbEntity
  8
0
  6
Continuous
 62
   250
420
  1644836
370
     0
100
AcDbLine
 10
5408.2303288482
 20
677.1683414744
 30
0.0
 11
5408.2303288482
 21
682.5861108457
 31
0.0
  0
LINE
  5
C4
330
1F
100
AcDbEntity
  8
0
  6
Continuous
 62
   250
420
  1644836
370
     0
100
AcDbLine
 10
5408.2303288482
 20
677.1683414744
 30
0.0
 11
5413.6480982155
 21
677.1683414744
 31
0.0
  0
LINE
  5
C5
330
1F
100
AcDbEntity
  8
0
  6
Continuous
 62
   250
420
  1644836
370
     0
100
AcDbLine
 10
5408.2303288482
 20
677.1683414744
 30
0.0
 11
5408.2303288482
 21
669.0416874234
 31
0.0
  0
LINE
  5
C6
330
1F
100
AcDbEntity
  8
0
  6
Continuous
 62
   250
420
  1644836
370
     0
100
AcDbLine
 10
5419.0658675828
 20
669.0416874234
 30
0.0
 11
5413.6480982155
 21
677.1683414744
 31
0.0
  0
LINE
  5
C7
330
1F
100
AcDbEntity
  8
0
  6
Continuous
 62
     7
370
     0
100
AcDbLine
 10
4300.0
 20
380.0000000004
 30
0.0
 11
5740.0
 21
380.0000000004
 31
0.0
  0
LINE
  5
C8
330
1F
100
AcDbEntity
  8
0
  6
Continuous
 62
     7
370
     0
100
AcDbLine
 10
5740.0
 20
560.0000000008
 30
0.0
 11
4300.0
 21
560.0000000008
 31
0.0
  0
LINE
  5
C9
330
1F
100
AcDbEntity
  8
0
  6
Continuous
 62
     7
370
     0
100
AcDbLine
 10
200.0
 20
1100.0
 30
0.0
 11
200.0
 21
1300.0
 31
0.0
  0
LINE
  5
CA
330
1F
100
AcDbEntity
  8
0
  6
Continuous
 62
     7
370
     0
100
AcDbLine
 10
200.0
 20
1300.0
 30
0.0
 11
200.0
 21
1500.0
 31
0.0
  0
LINE
  5
CB
330
1F
100
AcDbEntity
  8
0
  6
Continuous
 62
     7
370
     0
100
AcDbLine
 10
200.0
 20
1500.0
 30
0.0
 11
200.0
 21
1700.0
 31
0.0
  0
LINE
  5
CC
330
1F
100
AcDbEntity
  8
0
  6
Continuous
 62
     7
370
     0
100
AcDbLine
 10
200.0
 20
1700.0
 30
0.0
 11
200.0
 21
1900.0
 31
0.0
  0
LINE
  5
CD
330
1F
100
AcDbEntity
  8
0
  6
Continuous
 62
     7
370
     0
100
AcDbLine
 10
200.0
 20
1900.0
 30
0.0
 11
200.0
 21
2100.0
 31
0.0
  0
LINE
  5
CE
330
1F
100
AcDbEntity
  8
0
  6
Continuous
 62
     7
370
     0
100
AcDbLine
 10
200.0
 20
2100.0
 30
0.0
 11
200.0
 21
2300.0
 31
0.0
  0
LINE
  5
CF
330
1F
100
AcDbEntity
  8
0
  6
Continuous
 62
     7
370
     0
100
AcDbLine
 10
200.0
 20
2300.0
 30
0.0
 11
200.0
 21
2500.0
 31
0.0
  0
LINE
  5
D0
330
1F
100
AcDbEntity
  8
0
  6
Continuous
 62
     7
370
     0
100
AcDbLine
 10
200.0
 20
2500.0
 30
0.0
 11
200.0
 21
2700.0
 31
0.0
  0
LINE
  5
D1
330
1F
100
AcDbEntity
  8
0
  6
Continuous
 62
     7
370
     0
100
AcDbLine
 10
200.0
 20
2700.0
 30
0.0
 11
200.0
 21
2900.0
 31
0.0
  0
LINE
  5
D2
330
1F
100
AcDbEntity
  8
0
  6
Continuous
 62
     7
370
     0
100
AcDbLine
 10
200.0
 20
2900.0
 30
0.0
 11
200.0
 21
3100.0
 31
0.0
  0
LINE
  5
D3
330
1F
100
AcDbEntity
  8
0
  6
Continuous
 62
     7
370
    15
100
AcDbLine
 10
4300.0
 20
740.0000000012
 30
0.0
 11
4300.0
 21
200.0
 31
0.0
  0
ARC
  5
D4
330
1F
100
AcDbEntity
  8
0
  6
Continuous
 62
   250
420
  1644836
370
     0
100
AcDbCircle
 10
4705.847761962
 20
660.3000418309
 30
0.0
 40
14.44738498163234
100
AcDbArc
 50
69.991210111
 51
90.0
  0
ARC
  5
D5
330
1F
100
AcDbEntity
  8
0
  6
Continuous
 62
   250
420
  1644836
370
     0
100
AcDbCircle
 10
4705.8477619608
 20
667.5237343201
 30
0.0
 40
14.44738498508821
100
AcDbArc
 50
270.0
 51
290.0087898887
  0
ARC
  5
D6
330
1F
100
AcDbEntity
  8
0
  6
Continuous
 62
   250
420
  1644836
370
     0
100
AcDbCircle
 10
4945.894345536
 20
649.4645030844
 30
0.0
 40
21.6710774810374
100
AcDbArc
 50
56.1685552524
 51
90.0
  0
ARC
  5
D7
330
1F
100
AcDbEntity
  8
0
  6
Continuous
 62
   250
420
  1644836
370
     0
100
AcDbCircle
 10
4945.894345536
 20
649.4645030844
 30
0.0
 40
21.67107747996025
100
AcDbArc
 50
270.0
 51
303.830934914
  0
ARC
  5
D8
330
1F
100
AcDbEntity
  8
0
  6
Continuous
 62
   250
420
  1644836
370
     0
100
AcDbCircle
 10
5077.7895399397
 20
624.1815793653
 30
0.0
 40
14.44738498648894
100
AcDbArc
 50
0.0
 51
90.0
  0
ARC
  5
D9
330
1F
100
AcDbEntity
  8
0
  6
Continuous
 62
   250
420
  1644836
370
     0
100
AcDbCircle
 10
5076.9563448373
 20
663.9118880749
 30
0.0
 40
10.83553873888712
100
AcDbArc
 50
54.413089495
 51
90.0
  0
ARC
  5
DA
330
1F
100
AcDbEntity
  8
0
  6
Continuous
 62
   250
420
  1644836
370
     0
100
AcDbCircle
 10
5076.9563448373
 20
663.9118880749
 30
0.0
 40
10.83553874042923
100
AcDbArc
 50
270.0
 51
305.5869104966
  0
ARC
  5
DB
330
1F
100
AcDbEntity
  8
0
  6
Continuous
 62
   250
420
  1644836
370
     0
100
AcDbCircle
 10
5098.0751698592
 20
625.9255921417
 30
0.0
 40
19.99498053551325
100
AcDbArc
 50
10.4199484279
 51
80.7321727594
  0
ARC
  5
DC
330
1F
100
AcDbEntity
  8
0
  6
Continuous
 62
   250
420
  1644836
370
     0
100
AcDbCircle
 10
5130.9071332752
 20
620.2287679348
 30
0.0
 40
10.45082174718729
100
AcDbArc
 50
192.6768785101
 51
204.7368873207
  0
CIRCLE
  5
DD
330
1F
100
AcDbEntity
  8
0
  6
Continuous
 62
   250
420
  1644836
370
     0
100
AcDbCircle
 10
5412.5728417235
 20
675.7351394671
 30
0.0
 40
11.8602042904613
  0
CIRCLE
  5
DE
330
1F
100
AcDbEntity
  8
0
  6
Continuous
 62
   250
420
  1973790
370
     0
100
AcDbCircle
 10
5642.7011703042
 20
290.3691875087
 30
0.0
 40
17.17415752552839
  0
CIRCLE
  5
DF
330
1F
100
AcDbEntity
  8
0
  6
Continuous
 62
   250
420
  1973790
370
     0
100
AcDbCircle
 10
5642.7011703042
 20
290.3691875087
 30
0.0
 40
33.5518716332741
  0
ELLIPSE
  5
E0
330
1F
100
AcDbEntity
  8
0
  6
Continuous
 62
   250
420
  1644836
370
     0
100
AcDbEllipse
 10
4700.3516071939
 20
663.9118880739
 30
0.0
 11
19.86515435528417
 21
0.0
 31
0.0
210
0.0
220
0.0
230
1.0
 40
0.5895245511
 41
5.265715075739357
 42
7.300655538615938
  0
ELLIPSE
  5
E1
330
1F
100
AcDbEntity
  8
0
  6
Continuous
 62
   250
420
  1644836
370
     0
100
AcDbEllipse
 10
4924.2860744752
 20
649.4645030852
 30
0.0
 11
45.14807808009209
 21
0.0
 31
0.0
210
0.0
220
0.0
230
1.0
 40
0.5985848325
 41
5.554193105221712
 42
7.012172182744729
  0
ELLIPSE
  5
E2
330
1F
100
AcDbEntity
  8
0
  6
Continuous
 62
   250
420
  1644836
370
     0
100
AcDbEllipse
 10
5065.1480780821
 20
663.9118880739
 30
0.0
 11
23.47700060163515
 21
0.0
 31
0.0
210
0.0
220
0.0
230
1.0
 40
0.5900077182
 41
5.593675727225931
 42
6.97269488710657
  0
ELLIPSE
  5
E3
330
1F
100
AcDbEntity
  8
0
  6
Continuous
 62
   250
420
  1644836
370
     0
100
AcDbEllipse
 10
5076.0598954138
 20
665.8728041646
 30
0.0
 11
48.6533324507036
 21
0.0
 31
0.0
210
0.0
220
0.0
230
1.0
 40
0.485929116
 41
5.257694056962849
 42
7.689248379254996
  0
ELLIPSE
  5
E4
330
1F
100
AcDbEntity
  8
0
  6
Continuous
 62
   250
420
  1644836
370
     0
100
AcDbEllipse
 10
4936.9275363302
 20
649.4645030852
 30
0.0
 11
57.78953994231141
 21
0.0
 31
0.0
210
0.0
220
0.0
230
1.0
 40
0.6929224243
 41
4.837574201223028
 42
7.72879641314261
  0
ELLIPSE
  5
E5
330
1F
100
AcDbEntity
  8
0
  6
Continuous
 62
   250
420
  1644836
370
     0
100
AcDbEllipse
 10
4702.1575303142
 20
663.9118880739
 30
0.0
 11
54.17769369596681
 21
0.0
 31
0.0
210
0.0
220
0.0
230
1.0
 40
0.4768529109
 41
4.919453630382234
 42
7.646916983963972
  0
ELLIPSE
  5
E6
330
1F
100
AcDbEntity
  8
0
  6
Continuous
 62
   250
420
  1644836
370
     0
100
AcDbEllipse
 10
5416.0854968826
 20
679.8772261601
 30
0.0
 11
2.980370711883552
 21
0.0
 31
0.0
210
0.0
220
0.0
230
1.0
 40
0.9213369296
 41
4.876826485633947
 42
7.68954412872528
  0
MTEXT
  5
E8
330
1F
100
AcDbEntity
  8
0
  6
Continuous
 62
     7
370
     0
100
AcDbMText
 10
4462.889890894
 20
331.2759848741
 30
0.0
 40
74.0833333333
 41
0.0
 46
0.0
 71
     1
 72
     1
  1
IGLC_CONSOLLE
  7
SLDTEXTSTYLE0
 73
     1
 44
1.0
  0
MTEXT
  5
E9
330
1F
100
AcDbEntity
  8
0
  6
Continuous
 62
     7
370
     0
100
AcDbMText
 10
4317.7691975646
 20
292.7742669947
 30
0.0
 40
36.0
 41
0.0
 46
0.0
 71
     1
 72
     1
  1
COD.
  7
SLDTEXTSTYLE0
 73
     1
 44
1.0
  0
MTEXT
  5
EA
330
1F
100
AcDbEntity
  8
0
  6
Continuous
 62
     7
370
     0
100
AcDbMText
 10
214.1710356936
 20
149.4430344364
 30
0.0
 40
36.0
 41
0.0
 46
0.0
 71
     1
 72
     1
  1
This document is the property of PEDRALI S.p.A. who willsafeguard its rights according to the civil and penal prevision of the Law.
  7
SLDTEXTSTYLE0
 73
     1
 44
1.0
  0
INSERT
  5
F0
330
1F
100
AcDbEntity
  8
0
  6
Continuous
 62
     7
370
     0
100
AcDbBlockReference
  2
SW_NOTE_0
 10
2881.7211973224
 20
107.1626797512
 30
0.0
  0
MTEXT
  5
F1
330
1F
100
AcDbEntity
  8
0
  6
Continuous
 62
     7
370
     0
100
AcDbMText
 10
4317.7691975646
 20
468.6204199275
 30
0.0
 40
36.0
 41
0.0
 46
0.0
 71
     1
 72
     1
  1
SERIE:
  7
SLDTEXTSTYLE0
 73
     1
 44
1.0
  0
MTEXT
  5
F2
330
1F
100
AcDbEntity
  8
0
  6
Continuous
 62
     7
370
     0
100
AcDbMText
 10
4462.889890894
 20
507.1221378069
 30
0.0
 40
74.0833333333
 41
0.0
 46
0.0
 71
     1
 72
     1
  1
IGLOO
  7
SLDTEXTSTYLE0
 73
     1
 44
1.0
  0
INSERT
  5
F8
330
1F
100
AcDbEntity
  8
0
  6
Continuous
 62
     7
370
     0
100
AcDbBlockReference
  2
SW_NOTE_1
 10
5533.9766123908
 20
485.3264256762
 30
0.0
  0
ARC
  5
F9
330
1F
100
AcDbEntity
  8
0
  6
Continuous
 62
     7
370
    15
100
AcDbCircle
 10
1338.5025246027
 20
2463.6234213548
 30
0.0
 40
4.000000000000053
100
AcDbArc
 50
90.0
 51
155.0
  0
ARC
  5
FA
330
1F
100
AcDbEntity
  8
0
  6
Continuous
 62
     7
370
    15
100
AcDbCircle
 10
1283.4059625162
 20
2463.6234213548
 30
0.0
 40
4.000000000000053
100
AcDbArc
 50
25.0
 51
90.0
  0
LINE
  5
FB
330
1F
100
AcDbEntity
  8
0
  6
Continuous
 62
     7
370
    15
100
AcDbLine
 10
1287.0311936644
 20
2465.3138944017
 30
0.0
 11
1289.5403700361
 21
2459.9329483078
 31
0.0
  0
LINE
  5
FC
330
1F
100
AcDbEntity
  8
0
  6
Continuous
 62
     7
370
    15
100
AcDbLine
 10
1332.3681170828
 20
2459.9329483078
 30
0.0
 11
1334.8772934546
 21
2465.3138944017
 31
0.0
  0
ARC
  5
FD
330
1F
100
AcDbEntity
  8
0
  6
Continuous
 62
     7
370
    15
100
AcDbCircle
 10
1328.7428859347
 20
2461.6234213548
 30
0.0
 40
4.0
100
AcDbArc
 50
270.0
 51
335.0
  0
ARC
  5
FE
330
1F
100
AcDbEntity
  8
0
  6
Continuous
 62
     7
370
    15
100
AcDbCircle
 10
1293.1656011843
 20
2461.6234213548
 30
0.0
 40
4.000000000000053
100
AcDbArc
 50
205.0
 51
270.0
  0
ARC
  5
FF
330
1F
100
AcDbEntity
  8
0
  6
Continuous
 62
     7
370
    15
100
AcDbCircle
 10
1818.8326104926
 20
2463.6234213548
 30
0.0
 40
4.000000000000053
100
AcDbArc
 50
90.0
 51
155.0
  0
ARC
  5
100
330
1F
100
AcDbEntity
  8
0
  6
Continuous
 62
     7
370
    15
100
AcDbCircle
 10
1763.7360484062
 20
2463.6234213548
 30
0.0
 40
4.0
100
AcDbArc
 50
25.0
 51
90.0
  0
LINE
  5
101
330
1F
100
AcDbEntity
  8
0
  6
Continuous
 62
     7
370
    15
100
AcDbLine
 10
1767.3612795543
 20
2465.3138944017
 30
0.0
 11
1769.870455926
 21
2459.9329483078
 31
0.0
  0
LINE
  5
102
330
1F
100
AcDbEntity
  8
0
  6
Continuous
 62
     7
370
    15
100
AcDbLine
 10
1812.6982029728
 20
2459.9329483078
 30
0.0
 11
1815.2073793445
 21
2465.3138944017
 31
0.0
  0
ARC
  5
103
330
1F
100
AcDbEntity
  8
0
  6
Continuous
 62
     7
370
    15
100
AcDbCircle
 10
1809.0729718246
 20
2461.6234213548
 30
0.0
 40
4.000000000000053
100
AcDbArc
 50
270.0
 51
335.0
  0
ARC
  5
104
330
1F
100
AcDbEntity
  8
0
  6
Continuous
 62
     7
370
    15
100
AcDbCircle
 10
1773.4956870742
 20
2461.6234213548
 30
0.0
 40
4.0
100
AcDbArc
 50
205.0
 51
270.0
  0
ARC
  5
105
330
1F
100
AcDbEntity
  8
0
  6
Continuous
 62
     7
370
    15
100
AcDbCircle
 10
1638.2512619442
 20
2463.6234213548
 30
0.0
 40
4.000000000000053
100
AcDbArc
 50
90.0
 51
155.0
  0
ARC
  5
106
330
1F
100
AcDbEntity
  8
0
  6
Continuous
 62
     7
370
    15
100
AcDbCircle
 10
1583.1546998578
 20
2463.6234213548
 30
0.0
 40
4.000000000000053
100
AcDbArc
 50
25.0
 51
90.0
  0
LINE
  5
107
330
1F
100
AcDbEntity
  8
0
  6
Continuous
 62
     7
370
    15
100
AcDbLine
 10
1586.7799310059
 20
2465.3138944017
 30
0.0
 11
1589.2891073776
 21
2459.9329483078
 31
0.0
  0
LINE
  5
108
330
1F
100
AcDbEntity
  8
0
  6
Continuous
 62
     7
370
    15
100
AcDbLine
 10
1632.1168544244
 20
2459.9329483078
 30
0.0
 11
1634.6260307961
 21
2465.3138944017
 31
0.0
  0
ARC
  5
109
330
1F
100
AcDbEntity
  8
0
  6
Continuous
 62
     7
370
    15
100
AcDbCircle
 10
1628.4916232762
 20
2461.6234213548
 30
0.0
 40
4.000000000000053
100
AcDbArc
 50
270.0
 51
335.0
  0
ARC
  5
10A
330
1F
100
AcDbEntity
  8
0
  6
Continuous
 62
     7
370
    15
100
AcDbCircle
 10
1592.9143385258
 20
2461.6234213548
 30
0.0
 40
4.0
100
AcDbArc
 50
205.0
 51
270.0
  0
ARC
  5
10B
330
1F
100
AcDbEntity
  8
0
  6
Continuous
 62
     7
370
    15
100
AcDbCircle
 10
2036.8340019575
 20
2463.6234213548
 30
0.0
 40
4.000000000000053
100
AcDbArc
 50
90.0
 51
155.0
  0
ARC
  5
10C
330
1F
100
AcDbEntity
  8
0
  6
Continuous
 62
     7
370
    15
100
AcDbCircle
 10
1981.737439871
 20
2463.6234213548
 30
0.0
 40
4.000000000000053
100
AcDbArc
 50
25.0
 51
90.0
  0
LINE
  5
10D
330
1F
100
AcDbEntity
  8
0
  6
Continuous
 62
     7
370
    15
100
AcDbLine
 10
1985.3626710192
 20
2465.3138944017
 30
0.0
 11
1987.8718473909
 21
2459.9329483078
 31
0.0
  0
LINE
  5
10E
330
1F
100
AcDbEntity
  8
0
  6
Continuous
 62
     7
370
    15
100
AcDbLine
 10
2030.6995944376
 20
2459.9329483078
 30
0.0
 11
2033.2087708093
 21
2465.3138944017
 31
0.0
  0
ARC
  5
10F
330
1F
100
AcDbEntity
  8
0
  6
Continuous
 62
     7
370
    15
100
AcDbCircle
 10
2027.0743632895
 20
2461.6234213548
 30
0.0
 40
4.0
100
AcDbArc
 50
270.0
 51
335.0
  0
ARC
  5
110
330
1F
100
AcDbEntity
  8
0
  6
Continuous
 62
     7
370
    15
100
AcDbCircle
 10
1991.497078539
 20
2461.6234213548
 30
0.0
 40
4.000000000000053
100
AcDbArc
 50
205.0
 51
270.0
  0
ARC
  5
111
330
1F
100
AcDbEntity
  8
0
  6
Continuous
 62
     7
370
    15
100
AcDbCircle
 10
1238.5025246027
 20
2463.6234213548
 30
0.0
 40
4.000000000000053
100
AcDbArc
 50
90.0
 51
155.0
  0
ARC
  5
112
330
1F
100
AcDbEntity
  8
0
  6
Continuous
 62
     7
370
    15
100
AcDbCircle
 10
1183.4059625162
 20
2463.6234213548
 30
0.0
 40
4.000000000000053
100
AcDbArc
 50
25.0
 51
90.0
  0
LINE
  5
113
330
1F
100
AcDbEntity
  8
0
  6
Continuous
 62
     7
370
    15
100
AcDbLine
 10
1187.0311936644
 20
2465.3138944017
 30
0.0
 11
1189.5403700361
 21
2459.9329483078
 31
0.0
  0
LINE
  5
114
330
1F
100
AcDbEntity
  8
0
  6
Continuous
 62
     7
370
    15
100
AcDbLine
 10
1232.3681170828
 20
2459.9329483078
 30
0.0
 11
1234.8772934546
 21
2465.3138944017
 31
0.0
  0
ARC
  5
115
330
1F
100
AcDbEntity
  8
0
  6
Continuous
 62
     7
370
    15
100
AcDbCircle
 10
1228.7428859347
 20
2461.6234213548
 30
0.0
 40
4.000000000000053
100
AcDbArc
 50
270.0
 51
335.0
  0
ARC
  5
116
330
1F
100
AcDbEntity
  8
0
  6
Continuous
 62
     7
370
    15
100
AcDbCircle
 10
1193.1656011843
 20
2461.6234213548
 30
0.0
 40
4.000000000000053
100
AcDbArc
 50
205.0
 51
270.0
  0
ARC
  5
117
330
1F
100
AcDbEntity
  8
0
  6
Continuous
 62
     7
370
    15
100
AcDbCircle
 10
758.1724387128
 20
2463.6234213548
 30
0.0
 40
4.0
100
AcDbArc
 50
90.0
 51
155.0
  0
ARC
  5
118
330
1F
100
AcDbEntity
  8
0
  6
Continuous
 62
     7
370
    15
100
AcDbCircle
 10
703.0758766263
 20
2463.6234213548
 30
0.0
 40
4.0
100
AcDbArc
 50
25.0
 51
90.0
  0
LINE
  5
119
330
1F
100
AcDbEntity
  8
0
  6
Continuous
 62
     7
370
    15
100
AcDbLine
 10
706.7011077745
 20
2465.3138944017
 30
0.0
 11
709.2102841462
 21
2459.9329483078
 31
0.0
  0
LINE
  5
11A
330
1F
100
AcDbEntity
  8
0
  6
Continuous
 62
     7
370
    15
100
AcDbLine
 10
752.0380311929
 20
2459.9329483078
 30
0.0
 11
754.5472075646
 21
2465.3138944017
 31
0.0
  0
ARC
  5
11B
330
1F
100
AcDbEntity
  8
0
  6
Continuous
 62
     7
370
    15
100
AcDbCircle
 10
748.4128000448
 20
2461.6234213548
 30
0.0
 40
4.000000000000053
100
AcDbArc
 50
270.0
 51
335.0
  0
ARC
  5
11C
330
1F
100
AcDbEntity
  8
0
  6
Continuous
 62
     7
370
    15
100
AcDbCircle
 10
712.8355152943
 20
2461.6234213548
 30
0.0
 40
4.000000000000053
100
AcDbArc
 50
205.0
 51
270.0
  0
ARC
  5
11D
330
1F
100
AcDbEntity
  8
0
  6
Continuous
 62
     7
370
    15
100
AcDbCircle
 10
938.7537872612
 20
2463.6234213548
 30
0.0
 40
4.000000000000053
100
AcDbArc
 50
90.0
 51
155.0
  0
ARC
  5
11E
330
1F
100
AcDbEntity
  8
0
  6
Continuous
 62
     7
370
    15
100
AcDbCircle
 10
883.6572251747
 20
2463.6234213548
 30
0.0
 40
4.0
100
AcDbArc
 50
25.0
 51
90.0
  0
LINE
  5
11F
330
1F
100
AcDbEntity
  8
0
  6
Continuous
 62
     7
370
    15
100
AcDbLine
 10
887.2824563229
 20
2465.3138944017
 30
0.0
 11
889.7916326946
 21
2459.9329483078
 31
0.0
  0
LINE
  5
120
330
1F
100
AcDbEntity
  8
0
  6
Continuous
 62
     7
370
    15
100
AcDbLine
 10
932.6193797413
 20
2459.9329483078
 30
0.0
 11
935.128556113
 21
2465.3138944017
 31
0.0
  0
ARC
  5
121
330
1F
100
AcDbEntity
  8
0
  6
Continuous
 62
     7
370
    15
100
AcDbCircle
 10
928.9941485932
 20
2461.6234213548
 30
0.0
 40
4.000000000000053
100
AcDbArc
 50
270.0
 51
335.0
  0
ARC
  5
122
330
1F
100
AcDbEntity
  8
0
  6
Continuous
 62
     7
370
    15
100
AcDbCircle
 10
893.4168638427
 20
2461.6234213548
 30
0.0
 40
4.0
100
AcDbArc
 50
205.0
 51
270.0
  0
ARC
  5
123
330
1F
100
AcDbEntity
  8
0
  6
Continuous
 62
     7
370
    15
100
AcDbCircle
 10
540.1710472479
 20
2463.6234213548
 30
0.0
 40
4.000000000000053
100
AcDbArc
 50
90.0
 51
155.0
  0
ARC
  5
124
330
1F
100
AcDbEntity
  8
0
  6
Continuous
 62
     7
370
    15
100
AcDbCircle
 10
485.0744851615
 20
2463.6234213548
 30
0.0
 40
4.000000000000002
100
AcDbArc
 50
25.0
 51
90.0
  0
LINE
  5
125
330
1F
100
AcDbEntity
  8
0
  6
Continuous
 62
     7
370
    15
100
AcDbLine
 10
488.6997163096
 20
2465.3138944017
 30
0.0
 11
491.2088926813
 21
2459.9329483078
 31
0.0
  0
LINE
  5
126
330
1F
100
AcDbEntity
  8
0
  6
Continuous
 62
     7
370
    15
100
AcDbLine
 10
534.0366397281
 20
2459.9329483078
 30
0.0
 11
536.5458160998
 21
2465.3138944017
 31
0.0
  0
ARC
  5
127
330
1F
100
AcDbEntity
  8
0
  6
Continuous
 62
     7
370
    15
100
AcDbCircle
 10
530.4114085799
 20
2461.6234213548
 30
0.0
 40
4.0
100
AcDbArc
 50
270.0
 51
335.0
  0
ARC
  5
128
330
1F
100
AcDbEntity
  8
0
  6
Continuous
 62
     7
370
    15
100
AcDbCircle
 10
494.8341238295
 20
2461.6234213548
 30
0.0
 40
4.000000000000002
100
AcDbArc
 50
205.0
 51
270.0
  0
SPLINE
  5
129
330
1F
100
AcDbEntity
  8
0
  6
Continuous
 62
     7
370
    15
100
AcDbSpline
210
0.0
220
0.0
230
1.0
 70
    24
 71
     3
 72
    20
 73
    16
 74
     0
 42
0.000000001
 43
0.00000001
 40
0.0
 40
0.0
 40
0.0
 40
0.0
 40
0.125
 40
0.125
 40
0.25
 40
0.375
 40
0.375
 40
0.5
 40
0.5
 40
0.625
 40
0.625
 40
0.75
 40
0.875
 40
0.875
 40
1.0
 40
1.0
 40
1.0
 40
1.0
 10
1260.954243559474
 20
2472.623421354764
 30
0.0
 10
1260.954243559474
 20
2515.424586494476
 30
0.0
 10
1260.954243559474
 20
2558.501823760076
 30
0.0
 10
1260.954243559474
 20
2645.197282688589
 30
0.0
 10
1260.954243559474
 20
2732.433759610042
 30
0.0
 10
1260.954243559474
 20
2820.744991248074
 30
0.0
 10
1260.954243559474
 20
2909.597228907039
 30
0.0
 10
1260.954243559474
 20
2954.293833982091
 30
0.0
 10
1260.954243559474
 20
3044.239163279664
 30
0.0
 10
1260.954243559474
 20
3089.080018818599
 30
0.0
 10
1260.954243559474
 20
3178.496661392631
 30
0.0
 10
1260.954243559474
 20
3267.650507669588
 30
0.0
 10
1260.954243559474
 20
3356.28229697198
 30
0.0
 10
1260.954243559474
 20
3444.651294545796
 30
0.0
 10
1260.954243559474
 20
3488.704405617147
 30
0.0
 10
1260.954243559474
 20
3532.623421354764
 30
0.0
  0
SPLINE
  5
12A
330
1F
100
AcDbEntity
  8
0
  6
Continuous
 62
     7
370
    15
100
AcDbSpline
210
0.0
220
0.0
230
1.0
 70
     8
 71
     3
 72
    34
 73
    30
 74
     0
 42
0.000000001
 43
0.00000001
 40
0.0
 40
0.0
 40
0.0
 40
0.0
 40
0.1249999999999998
 40
0.1249999999999998
 40
0.2499999999999996
 40
0.2499999999999996
 40
0.3749999999999994
 40
0.3749999999999994
 40
0.4062499999999994
 40
0.4062499999999994
 40
0.4374999999999993
 40
0.4374999999999993
 40
0.4999999999999993
 40
0.4999999999999993
 40
0.5624999999999993
 40
0.5624999999999993
 40
0.5937499999999994
 40
0.5937499999999994
 40
0.6249999999999997
 40
0.6249999999999997
 40
0.75
 40
0.75
 40
0.8750000000000004
 40
0.8750000000000004
 40
0.9062500000000004
 40
0.9062500000000004
 40
0.9375000000000006
 40
0.9375000000000006
 40
1.0
 40
1.0
 40
1.0
 40
1.0
 10
2062.067363342274
 20
2471.07229650362
 30
0.0
 10
2076.017185696875
 20
2513.819723246653
 30
0.0
 10
2088.481029249032
 20
2556.886437285953
 30
0.0
 10
2110.478587080389
 20
2643.649452443186
 30
0.0
 10
2120.012252236327
 20
2687.345764116074
 30
0.0
 10
2136.151228773547
 20
2775.367593045051
 30
0.0
 10
2142.75658057908
 20
2819.693101615317
 30
0.0
 10
2149.159379949324
 20
2875.498326556141
 30
0.0
 10
2150.347169106903
 20
2886.680401731287
 30
0.0
 10
2152.533194939787
 20
2909.050880965598
 30
0.0
 10
2153.531937013539
 20
2920.243420253806
 30
0.0
 10
2156.245517996641
 20
2953.842924177825
 30
0.0
 10
2157.677791744748
 20
2976.271768672442
 30
0.0
 10
2159.78775012558
 20
3021.187887735742
 30
0.0
 10
2160.464523698421
 20
3043.655974629518
 30
0.0
 10
2160.912608576673
 20
3077.371849915731
 30
0.0
 10
2160.967400792188
 20
3088.616116413596
 30
0.0
 10
2160.88793107649
 20
3111.086090570318
 30
0.0
 10
2160.753748263803
 20
3122.313129177601
 30
0.0
 10
2159.612309284983
 20
3178.408724176251
 30
0.0
 10
2157.195071357369
 20
3223.1586205154
 30
0.0
 10
2149.37058310966
 20
3312.406782260356
 30
0.0
 10
2143.963337565018
 20
3356.905048068051
 30
0.0
 10
2135.32152285972
 20
3412.369432791714
 30
0.0
 10
2133.498883254465
 20
3423.454603091817
 30
0.0
 10
2129.664530374299
 20
3445.608114630691
 30
0.0
 10
2127.654562059127
 20
3456.666395555523
 30
0.0
 10
2121.346516440736
 20
3489.785860575189
 30
0.0
 10
2116.77037719936
 20
3511.791682591255
 30
0.0
 10
2111.823143609787
 20
3533.723619793484
 30
0.0
  0
ARC
  5
12B
330
1F
100
AcDbEntity
  8
0
  6
Continuous
 62
     7
370
    15
100
AcDbCircle
 10
1265.9542435595
 20
3532.6234213548
 30
0.0
 40
5.0
100
AcDbArc
 50
90.0
 51
180.0
  0
LINE
  5
12C
330
1F
100
AcDbEntity
  8
0
  6
Continuous
 62
     7
370
    15
100
AcDbLine
 10
1265.9542435595
 20
3537.6234213548
 30
0.0
 11
2106.9457741921
 21
3537.6234213548
 31
0.0
  0
ARC
  5
12D
330
1F
100
AcDbEntity
  8
0
  6
Continuous
 62
     7
370
    15
100
AcDbCircle
 10
2106.9457431484
 20
3532.6234890679
 30
0.0
 40
4.999932286956159
100
AcDbArc
 50
12.7107436441
 51
89.9996442611
  0
ARC
  5
12E
330
1F
100
AcDbEntity
  8
0
  6
Continuous
 62
     7
370
    15
100
AcDbCircle
 10
1265.9542435595
 20
2472.6234213548
 30
0.0
 40
5.0
100
AcDbArc
 50
180.0
 51
270.0
  0
ARC
  5
12F
330
1F
100
AcDbEntity
  8
0
  6
Continuous
 62
     7
370
    15
100
AcDbCircle
 10
2057.3141116912
 20
2472.6233328565
 30
0.0
 40
4.999911501870536
100
AcDbArc
 50
270.0003377517
 51
341.9279470658
  0
LINE
  5
130
330
1F
100
AcDbEntity
  8
0
  6
Continuous
 62
     7
370
    15
100
AcDbLine
 10
2057.3141411651
 20
2467.6234213548
 30
0.0
 11
1265.9542435595
 21
2467.6234213548
 31
0.0
  0
LINE
  5
131
330
1F
100
AcDbEntity
  8
0
  6
Continuous
 62
     7
370
    15
100
AcDbLine
 10
1310.9542435595
 20
2457.6234213548
 30
0.0
 11
1328.7428859347
 21
2457.6234213548
 31
0.0
  0
LINE
  5
132
330
1F
100
AcDbEntity
  8
0
  6
Continuous
 62
     7
370
    15
100
AcDbLine
 10
1293.1656011843
 20
2457.6234213548
 30
0.0
 11
1310.9542435595
 21
2457.6234213548
 31
0.0
  0
LINE
  5
133
330
1F
100
AcDbEntity
  8
0
  6
Continuous
 62
     7
370
    15
100
AcDbLine
 10
1791.2843294494
 20
2457.6234213548
 30
0.0
 11
1809.0729718246
 21
2457.6234213548
 31
0.0
  0
LINE
  5
134
330
1F
100
AcDbEntity
  8
0
  6
Continuous
 62
     7
370
    15
100
AcDbLine
 10
1773.4956870742
 20
2457.6234213548
 30
0.0
 11
1791.2843294494
 21
2457.6234213548
 31
0.0
  0
LINE
  5
135
330
1F
100
AcDbEntity
  8
0
  6
Continuous
 62
     7
370
    15
100
AcDbLine
 10
1610.702980901
 20
2457.6234213548
 30
0.0
 11
1628.4916232762
 21
2457.6234213548
 31
0.0
  0
LINE
  5
136
330
1F
100
AcDbEntity
  8
0
  6
Continuous
 62
     7
370
    15
100
AcDbLine
 10
1592.9143385258
 20
2457.6234213548
 30
0.0
 11
1610.702980901
 21
2457.6234213548
 31
0.0
  0
LINE
  5
137
330
1F
100
AcDbEntity
  8
0
  6
Continuous
 62
     7
370
    15
100
AcDbLine
 10
2009.2857209143
 20
2457.6234213548
 30
0.0
 11
2027.0743632895
 21
2457.6234213548
 31
0.0
  0
LINE
  5
138
330
1F
100
AcDbEntity
  8
0
  6
Continuous
 62
     7
370
    15
100
AcDbLine
 10
1991.497078539
 20
2457.6234213548
 30
0.0
 11
2009.2857209143
 21
2457.6234213548
 31
0.0
  0
SPLINE
  5
139
330
1F
100
AcDbEntity
  8
0
  6
Continuous
 62
     7
370
    15
100
AcDbSpline
210
0.0
220
0.0
230
1.0
 70
    24
 71
     3
 72
    50
 73
    46
 74
     0
 42
0.000000001
 43
0.00000001
 40
0.0
 40
0.0
 40
0.0
 40
0.0
 40
0.0205917354756921
 40
0.0411841011661731
 40
0.0617758366428181
 40
0.0865739964439707
 40
0.111375458645681
 40
0.136178022432167
 40
0.1609794846400281
 40
0.1857776444463407
 40
0.2107654097973355
 40
0.2357565538838094
 40
0.2607488250288714
 40
0.2857399691186739
 40
0.3107277344724616
 40
0.3359075218998085
 40
0.3610907665645184
 40
0.3862751644854387
 40
0.4114584091509372
 40
0.4366381965789458
 40
0.4577010615844658
 40
0.4787646010585308
 40
0.499827466063928
 40
0.5187921752616377
 40
0.5377573767687973
 40
0.5567220859663362
 40
0.5757045456248711
 40
0.5946874989768384
 40
0.6136699586351112
 40
0.6356703642277878
 40
0.6576715384318388
 40
0.67967194402385
 40
0.7017000770807704
 40
0.7237289816599537
 40
0.7457571147159715
 40
0.7719260725007187
 40
0.7981002044993019
 40
0.8242769266638111
 40
0.8504536488179765
 40
0.8766277807926872
 40
0.9027967385615165
 40
0.927096518157679
 40
0.9513983692867682
 40
0.9757002204107723
 40
1.0
 40
1.0
 40
1.0
 40
1.0
 10
1260.954243559474
 20
3532.623421354764
 30
0.0
 10
1260.954243559474
 20
3525.426866625096
 30
0.0
 10
1260.954243559474
 20
3511.033536913551
 30
0.0
 10
1260.954243559474
 20
3489.378028130091
 30
0.0
 10
1260.954243559474
 20
3466.200239552568
 30
0.0
 10
1260.954243559474
 20
3441.485123413232
 30
0.0
 10
1260.954243559474
 20
3415.225806332157
 30
0.0
 10
1260.954243559474
 20
3388.907989294277
 30
0.0
 10
1260.954243559474
 20
3362.538808163026
 30
0.0
 10
1260.954243559474
 20
3336.05596002732
 30
0.0
 10
1260.954243559474
 20
3309.462123521678
 30
0.0
 10
1260.954243559474
 20
3282.760191488636
 30
0.0
 10
1260.954243559474
 20
3256.022818761163
 30
0.0
 10
1260.954243559474
 20
3229.257230060034
 30
0.0
 10
1260.954243559474
 20
3202.40002455127
 30
0.0
 10
1260.954243559474
 20
3175.454193765984
 30
0.0
 10
1260.954243559474
 20
3148.422915078163
 30
0.0
 10
1260.954243559474
 20
3121.380213442637
 30
0.0
 10
1260.954243559474
 20
3094.333519854084
 30
0.0
 10
1260.954243559474
 20
3068.762069268018
 30
0.0
 10
1260.954243559474
 20
3044.669441906035
 30
0.0
 10
1260.954243559474
 20
3022.056629957919
 30
0.0
 10
1260.954243559474
 20
3000.203409325367
 30
0.0
 10
1260.954243559474
 20
2979.111435149803
 30
0.0
 10
1260.954243559474
 20
2958.781415627366
 30
0.0
 10
1260.954243559474
 20
2938.458969402128
 30
0.0
 10
1260.954243559474
 20
2918.146225582052
 30
0.0
 10
1260.954243559474
 20
2897.845307964306
 30
0.0
 10
1260.954243559474
 20
2876.489906975362
 30
0.0
 10
1260.954243559474
 20
2854.086313683404
 30
0.0
 10
1260.954243559474
 20
2830.642593079219
 30
0.0
 10
1260.954243559474
 20
2807.225654922459
 30
0.0
 10
1260.954243559474
 20
2783.838850252949
 30
0.0
 10
1260.954243559474
 20
2760.485495070166
 30
0.0
 10
1260.954243559474
 20
2735.718313757653
 30
0.0
 10
1260.954243559474
 20
2709.550482291389
 30
0.0
 10
1260.954243559474
 20
2681.998804215857
 30
0.0
 10
1260.954243559474
 20
2654.525585937136
 30
0.0
 10
1260.954243559474
 20
2627.138986625665
 30
0.0
 10
1260.954243559474
 20
2599.847075464632
 30
0.0
 10
1260.954243559474
 20
2573.302869123782
 30
0.0
 10
1260.954243559474
 20
2547.501137955561
 30
0.0
 10
1260.954243559474
 20
2522.438654183829
 30
0.0
 10
1260.954243559474
 20
2497.465778341314
 30
0.0
 10
1260.954243559474
 20
2480.903971713743
 30
0.0
 10
1260.954243559474
 20
2472.623421354764
 30
0.0
  0
SPLINE
  5
13A
330
1F
100
AcDbEntity
  8
0
  6
Continuous
 62
     7
370
    15
100
AcDbSpline
210
0.0
220
0.0
230
1.0
 70
     8
 71
     3
 72
    64
 73
    60
 74
     0
 42
0.000000001
 43
0.00000001
 40
0.0
 40
0.0
 40
0.0
 40
0.0
 40
0.0166236214466393
 40
0.0332472428934023
 40
0.0498761719827421
 40
0.066505101072191
 40
0.0831393428863346
 40
0.0997735847005739
 40
0.1164131443303877
 40
0.1330527039602854
 40
0.149697586505369
 40
0.1663424690505254
 40
0.1829926796191886
 40
0.1996428901879138
 40
0.2162984338971601
 40
0.2329539776064583
 40
0.2496148595819745
 40
0.266275741557533
 40
0.2829419669336845
 40
0.2996081923098692
 40
0.3162797662296998
 40
0.3329513401495549
 40
0.3496282677647911
 40
0.3663051953800431
 40
0.3829874818511028
 40
0.3996697683221702
 40
0.4163574188181756
 40
0.4330450693141801
 40
0.4497380890129742
 40
0.466431108711759
 40
0.4831288307240763
 40
0.499827896901598
 40
0.5114139906981449
 40
0.5345865150530165
 40
0.557762632412774
 40
0.5809513941965598
 40
0.6041401559801812
 40
0.6273433317870076
 40
0.6505465075936184
 40
0.673764124348862
 40
0.6969817411038343
 40
0.7202138258194466
 40
0.7434459105347258
 40
0.7594632994739163
 40
0.7754818748730254
 40
0.7915046052527087
 40
0.8075273356322924
 40
0.8235548184579369
 40
0.839582301283469
 40
0.855614540791937
 40
0.8716467803002785
 40
0.8876837807353881
 40
0.903720781170356
 40
0.9197625467829654
 40
0.9358043123954158
 40
0.9518508474435177
 40
0.9678973824914416
 40
0.9839480942995109
 40
1.0
 40
1.0
 40
1.0
 40
1.0
 10
410.0853435091602
 20
3533.723619793484
 30
0.0
 10
408.787500507805
 20
3527.90014268791
 30
0.0
 10
406.1918145050844
 20
3516.25318847672
 30
0.0
 10
402.4959326899395
 20
3498.737684530849
 30
0.0
 10
398.9450812255287
 20
3481.190441783512
 30
0.0
 10
395.5534223231572
 20
3463.607777492468
 30
0.0
 10
392.3178756508765
 20
3445.993806009531
 30
0.0
 10
389.2394314396257
 20
3428.347816689137
 30
0.0
 10
386.318484367122
 20
3410.673142589944
 30
0.0
 10
383.555086487002
 20
3392.969285710911
 30
0.0
 10
380.9498282559853
 20
3375.239536432756
 30
0.0
 10
378.5027023425523
 20
3357.483411326467
 30
0.0
 10
376.2142591305926
 20
3339.704210203448
 30
0.0
 10
374.084495049503
 20
3321.90145012172
 30
0.0
 10
372.1139031844866
 20
3304.07844311265
 30
0.0
 10
370.3024882806172
 20
3286.234705852913
 30
0.0
 10
368.6506846193764
 20
3268.373561833961
 30
0.0
 10
367.1585056050876
 20
3250.494527432647
 30
0.0
 10
365.8263263565165
 20
3232.600936579499
 30
0.0
 10
364.6541689757948
 20
3214.692305501796
 30
0.0
 10
363.6423491592265
 20
3196.771977523485
 30
0.0
 10
362.7908977208996
 20
3178.839468877864
 30
0.0
 10
362.1000706989738
 20
3160.898131229439
 30
0.0
 10
361.5699076298592
 20
3142.947480973254
 30
0.0
 10
361.2006046748446
 20
3124.990877058165
 30
0.0
 10
360.9922101075394
 20
3107.027836187844
 30
0.0
 10
360.9448599847755
 20
3089.061723568445
 30
0.0
 10
361.0586114322714
 20
3071.092056230396
 30
0.0
 10
361.3335398097772
 20
3053.122205086976
 30
0.0
 10
361.7697067870824
 20
3035.151926858548
 30
0.0
 10
362.3671295659159
 20
3017.184121940642
 30
0.0
 10
363.0483887205311
 20
3001.053671710274
 30
0.0
 10
363.9678879405818
 20
2982.60804950644
 30
0.0
 10
365.1970290828672
 20
2961.850734941614
 30
0.0
 10
366.982420771202
 20
2936.956704726384
 30
0.0
 10
369.0782498080434
 20
2912.081015647371
 30
0.0
 10
371.4847438397256
 20
2887.223705295575
 30
0.0
 10
374.2014392416332
 20
2862.393175658392
 30
0.0
 10
377.2286956001716
 20
2837.588159496458
 30
0.0
 10
380.5657757299717
 20
2812.817691561473
 30
0.0
 10
384.2130712431567
 20
2788.080505855011
 30
0.0
 10
388.1696147206175
 20
2763.385647633754
 30
0.0
 10
391.9934252891266
 20
2741.288474480312
 30
0.0
 10
395.5816398631086
 20
2721.779492064799
 30
0.0
 10
398.8476778803313
 20
2704.842786877971
 30
0.0
 10
402.2597639441075
 20
2687.932949709341
 30
0.0
 10
405.8179496584344
 20
2671.049981877959
 30
0.0
 10
409.5217413563329
 20
2654.196612224716
 30
0.0
 10
413.3712797565225
 20
2637.37243338356
 30
0.0
 10
417.3659791466319
 20
2620.580374124043
 30
0.0
 10
421.5059882063024
 20
2603.820030029959
 30
0.0
 10
425.7906659924556
 20
2587.094320400345
 30
0.0
 10
430.2201847920931
 20
2570.402848487452
 30
0.0
 10
434.7937911696252
 20
2553.748504662102
 30
0.0
 10
439.5118947345518
 20
2537.130969683532
 30
0.0
 10
444.3728318370335
 20
2520.552843771118
 30
0.0
 10
449.380165377112
 20
2504.01506219322
 30
0.0
 10
454.5203262424624
 20
2487.515895485236
 30
0.0
 10
458.0674806258567
 20
2476.553632059237
 30
0.0
 10
459.8411237766725
 20
2471.07229650362
 30
0.0
  0
ARC
  5
13B
330
1F
100
AcDbEntity
  8
0
  6
Continuous
 62
     7
370
    15
100
AcDbCircle
 10
1255.9542435595
 20
3532.6234213548
 30
0.0
 40
5.0
100
AcDbArc
 50
0.0
 51
90.0
  0
LINE
  5
13C
330
1F
100
AcDbEntity
  8
0
  6
Continuous
 62
     7
370
    15
100
AcDbLine
 10
414.9627129269
 20
3537.6234213548
 30
0.0
 11
1255.9542435595
 21
3537.6234213548
 31
0.0
  0
ARC
  5
13D
330
1F
100
AcDbEntity
  8
0
  6
Continuous
 62
     7
370
    15
100
AcDbCircle
 10
414.9627439706
 20
3532.6234890679
 30
0.0
 40
4.999932286957084
100
AcDbArc
 50
90.0003557389
 51
167.2892563559
  0
ARC
  5
13E
330
1F
100
AcDbEntity
  8
0
  6
Continuous
 62
     7
370
    15
100
AcDbCircle
 10
1255.9542435595
 20
2472.6234213548
 30
0.0
 40
5.0
100
AcDbArc
 50
270.0
 51
0.0
  0
LINE
  5
13F
330
1F
100
AcDbEntity
  8
0
  6
Continuous
 62
     7
370
    15
100
AcDbLine
 10
1255.9542435595
 20
2467.6234213548
 30
0.0
 11
464.5943459539
 21
2467.6234213548
 31
0.0
  0
ARC
  5
140
330
1F
100
AcDbEntity
  8
0
  6
Continuous
 62
     7
370
    15
100
AcDbCircle
 10
464.5943754277
 20
2472.6233328565
 30
0.0
 40
4.999911501871354
100
AcDbArc
 50
198.0720529342
 51
269.9996622483
  0
LINE
  5
141
330
1F
100
AcDbEntity
  8
0
  6
Continuous
 62
     7
370
    15
100
AcDbLine
 10
1193.1656011843
 20
2457.6234213548
 30
0.0
 11
1228.7428859335
 21
2457.6234213548
 31
0.0
  0
LINE
  5
142
330
1F
100
AcDbEntity
  8
0
  6
Continuous
 62
     7
370
    15
100
AcDbLine
 10
712.8355152943
 20
2457.6234213548
 30
0.0
 11
748.4128000436
 21
2457.6234213548
 31
0.0
  0
LINE
  5
143
330
1F
100
AcDbEntity
  8
0
  6
Continuous
 62
     7
370
    15
100
AcDbLine
 10
893.4168638427
 20
2457.6234213548
 30
0.0
 11
928.9941485919
 21
2457.6234213548
 31
0.0
  0
LINE
  5
144
330
1F
100
AcDbEntity
  8
0
  6
Continuous
 62
     7
370
    15
100
AcDbLine
 10
494.8341238295
 20
2457.6234213548
 30
0.0
 11
530.4114085787
 21
2457.6234213548
 31
0.0
  0
ARC
  5
145
330
1F
100
AcDbEntity
  8
0
  6
Continuous
 62
     7
370
    15
100
AcDbCircle
 10
2605.9704835668
 20
2463.6234213548
 30
0.0
 40
4.000000000000053
100
AcDbArc
 50
90.0
 51
155.0
  0
ARC
  5
146
330
1F
100
AcDbEntity
  8
0
  6
Continuous
 62
     7
370
    15
100
AcDbCircle
 10
2550.8739214804
 20
2463.6234213548
 30
0.0
 40
4.000000000000053
100
AcDbArc
 50
25.0
 51
90.0
  0
LINE
  5
147
330
1F
100
AcDbEntity
  8
0
  6
Continuous
 62
     7
370
    15
100
AcDbLine
 10
2554.4991526285
 20
2465.3138944017
 30
0.0
 11
2557.0083290002
 21
2459.9329483078
 31
0.0
  0
LINE
  5
148
330
1F
100
AcDbEntity
  8
0
  6
Continuous
 62
     7
370
    15
100
AcDbLine
 10
2599.836076047
 20
2459.9329483078
 30
0.0
 11
2602.3452524187
 21
2465.3138944017
 31
0.0
  0
ARC
  5
149
330
1F
100
AcDbEntity
  8
0
  6
Continuous
 62
     7
370
    15
100
AcDbCircle
 10
2596.2108448988
 20
2461.6234213548
 30
0.0
 40
4.000000000000053
100
AcDbArc
 50
270.0
 51
335.0
  0
ARC
  5
14A
330
1F
100
AcDbEntity
  8
0
  6
Continuous
 62
     7
370
    15
100
AcDbCircle
 10
2560.6335601484
 20
2461.6234213548
 30
0.0
 40
4.000000000000053
100
AcDbArc
 50
205.0
 51
270.0
  0
ARC
  5
14B
330
1F
100
AcDbEntity
  8
0
  6
Continuous
 62
     7
370
    15
100
AcDbCircle
 10
3086.3005694567
 20
2463.6234213548
 30
0.0
 40
4.000000000000053
100
AcDbArc
 50
90.0
 51
155.0
  0
ARC
  5
14C
330
1F
100
AcDbEntity
  8
0
  6
Continuous
 62
     7
370
    15
100
AcDbCircle
 10
3031.2040073703
 20
2463.6234213548
 30
0.0
 40
4.000000000000053
100
AcDbArc
 50
25.0
 51
90.0
  0
LINE
  5
14D
330
1F
100
AcDbEntity
  8
0
  6
Continuous
 62
     7
370
    15
100
AcDbLine
 10
3034.8292385184
 20
2465.3138944017
 30
0.0
 11
3037.3384148901
 21
2459.9329483078
 31
0.0
  0
LINE
  5
14E
330
1F
100
AcDbEntity
  8
0
  6
Continuous
 62
     7
370
    15
100
AcDbLine
 10
3080.1661619369
 20
2459.9329483078
 30
0.0
 11
3082.6753383086
 21
2465.3138944017
 31
0.0
  0
ARC
  5
14F
330
1F
100
AcDbEntity
  8
0
  6
Continuous
 62
     7
370
    15
100
AcDbCircle
 10
3076.5409307887
 20
2461.6234213548
 30
0.0
 40
4.000000000000053
100
AcDbArc
 50
270.0
 51
335.0
  0
ARC
  5
150
330
1F
100
AcDbEntity
  8
0
  6
Continuous
 62
     7
370
    15
100
AcDbCircle
 10
3040.9636460383
 20
2461.6234213548
 30
0.0
 40
4.000000000000053
100
AcDbArc
 50
205.0
 51
270.0
  0
ARC
  5
151
330
1F
100
AcDbEntity
  8
0
  6
Continuous
 62
     7
370
    15
100
AcDbCircle
 10
2905.7192209084
 20
2463.6234213548
 30
0.0
 40
4.000000000000053
100
AcDbArc
 50
90.0
 51
155.0
  0
ARC
  5
152
330
1F
100
AcDbEntity
  8
0
  6
Continuous
 62
     7
370
    15
100
AcDbCircle
 10
2850.6226588219
 20
2463.6234213548
 30
0.0
 40
4.000000000000053
100
AcDbArc
 50
25.0
 51
90.0
  0
LINE
  5
153
330
1F
100
AcDbEntity
  8
0
  6
Continuous
 62
     7
370
    15
100
AcDbLine
 10
2854.24788997
 20
2465.3138944017
 30
0.0
 11
2856.7570663418
 21
2459.9329483078
 31
0.0
  0
LINE
  5
154
330
1F
100
AcDbEntity
  8
0
  6
Continuous
 62
     7
370
    15
100
AcDbLine
 10
2899.5848133885
 20
2459.9329483078
 30
0.0
 11
2902.0939897602
 21
2465.3138944017
 31
0.0
  0
ARC
  5
155
330
1F
100
AcDbEntity
  8
0
  6
Continuous
 62
     7
370
    15
100
AcDbCircle
 10
2895.9595822403
 20
2461.6234213548
 30
0.0
 40
4.000000000000053
100
AcDbArc
 50
270.0
 51
335.0
  0
ARC
  5
156
330
1F
100
AcDbEntity
  8
0
  6
Continuous
 62
     7
370
    15
100
AcDbCircle
 10
2860.3822974899
 20
2461.6234213548
 30
0.0
 40
4.000000000000053
100
AcDbArc
 50
205.0
 51
270.0
  0
ARC
  5
157
330
1F
100
AcDbEntity
  8
0
  6
Continuous
 62
     7
370
    15
100
AcDbCircle
 10
3304.3019609216
 20
2463.6234213548
 30
0.0
 40
4.0
100
AcDbArc
 50
90.0
 51
155.0
  0
ARC
  5
158
330
1F
100
AcDbEntity
  8
0
  6
Continuous
 62
     7
370
    15
100
AcDbCircle
 10
3249.2053988352
 20
2463.6234213548
 30
0.0
 40
4.000000000000053
100
AcDbArc
 50
25.0
 51
90.0
  0
LINE
  5
159
330
1F
100
AcDbEntity
  8
0
  6
Continuous
 62
     7
370
    15
100
AcDbLine
 10
3252.8306299833
 20
2465.3138944017
 30
0.0
 11
3255.339806355
 21
2459.9329483078
 31
0.0
  0
LINE
  5
15A
330
1F
100
AcDbEntity
  8
0
  6
Continuous
 62
     7
370
    15
100
AcDbLine
 10
3298.1675534017
 20
2459.9329483078
 30
0.0
 11
3300.6767297735
 21
2465.3138944017
 31
0.0
  0
ARC
  5
15B
330
1F
100
AcDbEntity
  8
0
  6
Continuous
 62
     7
370
    15
100
AcDbCircle
 10
3294.5423222536
 20
2461.6234213548
 30
0.0
 40
4.000000000000053
100
AcDbArc
 50
270.0
 51
335.0
  0
ARC
  5
15C
330
1F
100
AcDbEntity
  8
0
  6
Continuous
 62
     7
370
    15
100
AcDbCircle
 10
3258.9650375032
 20
2461.6234213548
 30
0.0
 40
4.000000000000053
100
AcDbArc
 50
205.0
 51
270.0
  0
SPLINE
  5
15D
330
1F
100
AcDbEntity
  8
0
  6
Continuous
 62
     7
370
    15
100
AcDbSpline
210
0.0
220
0.0
230
1.0
 70
     8
 71
     3
 72
    53
 73
    49
 74
     0
 42
0.000000001
 43
0.00000001
 40
0.0
 40
0.0
 40
0.0
 40
0.0
 40
0.02571055531994
 40
0.0514223374468905
 40
0.0771328927710827
 40
0.1028655574540446
 40
0.1285994521067178
 40
0.1543321167929336
 40
0.18008694790098
 40
0.2058430121563218
 40
0.2315978432668395
 40
0.2573748981269385
 40
0.2831531893266219
 40
0.3089302441885597
 40
0.3347295803905091
 40
0.360530156138939
 40
0.3863294923421985
 40
0.4005548310899392
 40
0.4147801698377059
 40
0.4337537401779376
 40
0.4527278035191419
 40
0.4717013738595918
 40
0.4859366958051859
 40
0.5001720177507936
 40
0.5203672881470279
 40
0.5405625585432984
 40
0.560767347802396
 40
0.5809721370615079
 40
0.6025951508736296
 40
0.6242188944145715
 40
0.6458419082266275
 40
0.6674780684756997
 40
0.6891149597856111
 40
0.7107511200344532
 40
0.732400450734353
 40
0.7540505138313809
 40
0.7756998445308768
 40
0.797362369772695
 40
0.8190256287522312
 40
0.8406881539934552
 40
0.8623638979461861
 40
0.8840403769815663
 40
0.905716120933489
 40
0.9214256447173163
 40
0.9371351685010658
 40
0.9580898909555987
 40
0.9790452775465
 40
1.0
 40
1.0
 40
1.0
 40
1.0
 10
3329.535322306394
 20
2471.07229650362
 30
0.0
 10
3332.363042298416
 20
2479.85614302833
 30
0.0
 10
3338.018617210183
 20
2497.424255208507
 30
0.0
 10
3346.039349648511
 20
2523.921604906054
 30
0.0
 10
3353.721754653274
 20
2550.526593657627
 30
0.0
 10
3361.030683058332
 20
2577.24511345487
 30
0.0
 10
3367.973445437626
 20
2604.069203463251
 30
0.0
 10
3374.546128543977
 20
2630.994590907082
 30
0.0
 10
3380.747534748229
 20
2658.016060684552
 30
0.0
 10
3386.576135210134
 20
2685.128530549352
 30
0.0
 10
3392.030649508246
 20
2712.326863823711
 30
0.0
 10
3397.109434470115
 20
2739.605972536307
 30
0.0
 10
3401.811346800859
 20
2766.960652842567
 30
0.0
 10
3406.13527012767
 20
2794.385717085388
 30
0.0
 10
3410.079782184119
 20
2821.876005088889
 30
0.0
 10
3413.643951908447
 20
2849.426225689645
 30
0.0
 10
3416.350130457883
 20
2872.896525936015
 30
0.0
 10
3418.372212758823
 20
2892.261983299515
 30
0.0
 10
3420.010454129813
 20
2909.20390067874
 30
0.0
 10
3421.646425057638
 20
2927.8577546363
 30
0.0
 10
3423.223739629784
 20
2948.226398630631
 30
0.0
 10
3424.479338621759
 20
2966.913302552199
 30
0.0
 10
3425.4692682396
 20
2983.912606698187
 30
0.0
 10
3426.351303362687
 20
3001.356899706278
 30
0.0
 10
3427.160200009298
 20
3020.946081068456
 30
0.0
 10
3427.821677234666
 20
3042.684379322563
 30
0.0
 10
3428.247232110194
 20
3064.432002305225
 30
0.0
 10
3428.441167118622
 20
3086.695368421193
 30
0.0
 10
3428.383590761726
 20
3109.468862959784
 30
0.0
 10
3428.054269201742
 20
3132.749111513347
 30
0.0
 10
3427.454420483989
 20
3156.028683188423
 30
0.0
 10
3426.583826500864
 20
3179.304424927753
 30
0.0
 10
3425.442518726513
 20
3202.573187596297
 30
0.0
 10
3424.030541101298
 20
3225.831831232002
 30
0.0
 10
3422.34778734489
 20
3249.077194175131
 30
0.0
 10
3420.394398332528
 20
3272.306123773766
 30
0.0
 10
3418.170527888974
 20
3295.515478013106
 30
0.0
 10
3415.676179720222
 20
3318.702087500187
 30
0.0
 10
3412.911605572584
 20
3341.862801011467
 30
0.0
 10
3409.877067181028
 20
3364.99447679254
 30
0.0
 10
3406.572686546554
 20
3388.093946483218
 30
0.0
 10
3402.998797324975
 20
3411.158045900155
 30
0.0
 10
3399.509170833542
 20
3432.066877007484
 30
0.0
 10
3396.183237387763
 20
3450.830556873768
 30
0.0
 10
3392.747282194928
 20
3469.311288159345
 30
0.0
 10
3388.762655402212
 20
3489.604084798199
 30
0.0
 10
3384.184305470666
 20
3511.697894005787
 30
0.0
 10
3380.922152974697
 20
3526.381788761399
 30
0.0
 10
3379.291102573908
 20
3533.723619793484
 30
0.0
  0
SPLINE
  5
15E
330
1F
100
AcDbEntity
  8
0
  6
Continuous
 62
     7
370
    15
100
AcDbSpline
210
0.0
220
0.0
230
1.0
 70
    24
 71
     3
 72
    48
 73
    44
 74
     0
 42
0.000000001
 43
0.00000001
 40
0.0
 40
0.0
 40
0.0
 40
0.0
 40
0.0228299563861094
 40
0.0456624895437453
 40
0.0684958821477064
 40
0.0913284153161937
 40
0.1141583717114052
 40
0.1383855046013575
 40
0.1626146904869051
 40
0.1868438763758108
 40
0.2110710092703428
 40
0.2351639812154343
 40
0.2592589722274727
 40
0.2833539632417905
 40
0.3074469351899906
 40
0.3315043291291488
 40
0.3555637331983534
 40
0.3796231372690381
 40
0.4036805312102151
 40
0.4278025384739531
 40
0.451926572107328
 40
0.4760506057415331
 40
0.5001726130064036
 40
0.5278132303983004
 40
0.555456896736996
 40
0.5831005630760188
 40
0.6107411804683615
 40
0.6361480518724287
 40
0.6615572910581347
 40
0.6869665302432877
 40
0.7123734016466006
 40
0.7362839030548274
 40
0.7601963779892542
 40
0.7841088529226372
 40
0.8080193543294404
 40
0.8319932890736256
 40
0.8559692130977984
 40
0.8799451371202294
 40
0.9039190718620393
 40
0.9279383036064457
 40
0.9519595359340949
 40
0.9759807682591423
 40
1.0
 40
1.0
 40
1.0
 40
1.0
 10
2528.422202523591
 20
2472.623421354764
 30
0.0
 10
2528.422202523591
 20
2480.402518977714
 30
0.0
 10
2528.422202523591
 20
2495.96159223481
 30
0.0
 10
2528.422202523591
 20
2519.415768077547
 30
0.0
 10
2528.422202523591
 20
2542.950369516604
 30
0.0
 10
2528.422202523591
 20
2566.568592217061
 30
0.0
 10
2528.422202523591
 20
2590.747695890066
 30
0.0
 10
2528.422202523591
 20
2615.491320054683
 30
0.0
 10
2528.422202523591
 20
2640.801435834252
 30
0.0
 10
2528.422202523591
 20
2666.188128117033
 30
0.0
 10
2528.422202523591
 20
2691.599387274166
 30
0.0
 10
2528.422202523591
 20
2717.031213052434
 30
0.0
 10
2528.422202523591
 20
2742.479589996117
 30
0.0
 10
2528.422202523591
 20
2767.986650216278
 30
0.0
 10
2528.422202523591
 20
2793.534838887333
 30
0.0
 10
2528.422202523591
 20
2819.120528366921
 30
0.0
 10
2528.422202523591
 20
2844.740040131852
 30
0.0
 10
2528.422202523591
 20
2870.400981028678
 30
0.0
 10
2528.422202523591
 20
2896.121363464156
 30
0.0
 10
2528.422202523591
 20
2921.897741922411
 30
0.0
 10
2528.422202523591
 20
2947.726573745395
 30
0.0
 10
2528.422202523591
 20
2973.579769115475
 30
0.0
 10
2528.422202523591
 20
3000.710182892645
 30
0.0
 10
2528.422202523591
 20
3029.117482693891
 30
0.0
 10
2528.422202523591
 20
3058.798645372563
 30
0.0
 10
2528.422202523591
 20
3088.487299800198
 30
0.0
 10
2528.422202523591
 20
3117.376108766752
 30
0.0
 10
2528.422202523591
 20
3145.459793358015
 30
0.0
 10
2528.422202523591
 20
3172.734949307909
 30
0.0
 10
2528.422202523591
 20
3199.995199268225
 30
0.0
 10
2528.422202523591
 20
3226.699886189662
 30
0.0
 10
2528.422202523591
 20
3252.846260016654
 30
0.0
 10
2528.422202523591
 20
3278.432655528512
 30
0.0
 10
2528.422202523591
 20
3303.988412447409
 30
0.0
 10
2528.422202523591
 20
3329.531176311994
 30
0.0
 10
2528.422202523591
 20
3355.057297136513
 30
0.0
 10
2528.422202523591
 20
3380.563129376595
 30
0.0
 10
2528.422202523591
 20
3406.021248674354
 30
0.0
 10
2528.422202523591
 20
3431.442592062692
 30
0.0
 10
2528.422202523591
 20
3456.823967050576
 30
0.0
 10
2528.422202523591
 20
3482.159967906407
 30
0.0
 10
2528.422202523591
 20
3507.436394912406
 30
0.0
 10
2528.422202523591
 20
3524.227978962051
 30
0.0
 10
2528.422202523591
 20
3532.623421354764
 30
0.0
  0
ARC
  5
15F
330
1F
100
AcDbEntity
  8
0
  6
Continuous
 62
     7
370
    15
100
AcDbCircle
 10
2533.4222025236
 20
3532.6234213548
 30
0.0
 40
5.0
100
AcDbArc
 50
90.0
 51
180.0
  0
LINE
  5
160
330
1F
100
AcDbEntity
  8
0
  6
Continuous
 62
     7
370
    15
100
AcDbLine
 10
2533.4222025236
 20
3537.6234213548
 30
0.0
 11
3374.4137331562
 21
3537.6234213548
 31
0.0
  0
ARC
  5
161
330
1F
100
AcDbEntity
  8
0
  6
Continuous
 62
     7
370
    15
100
AcDbCircle
 10
3374.4137021125
 20
3532.6234890679
 30
0.0
 40
4.99993228695789
100
AcDbArc
 50
12.7107436441
 51
89.9996442611
  0
ARC
  5
162
330
1F
100
AcDbEntity
  8
0
  6
Continuous
 62
     7
370
    15
100
AcDbCircle
 10
2533.4222025236
 20
2472.6234213548
 30
0.0
 40
5.0
100
AcDbArc
 50
180.0
 51
270.0
  0
ARC
  5
163
330
1F
100
AcDbEntity
  8
0
  6
Continuous
 62
     7
370
    15
100
AcDbCircle
 10
3324.7820706553
 20
2472.6233328565
 30
0.0
 40
4.99991150186999
100
AcDbArc
 50
270.0003377517
 51
341.9279470658
  0
LINE
  5
164
330
1F
100
AcDbEntity
  8
0
  6
Continuous
 62
     7
370
    15
100
AcDbLine
 10
3324.7821001292
 20
2467.6234213548
 30
0.0
 11
2533.4222025236
 21
2467.6234213548
 31
0.0
  0
LINE
  5
165
330
1F
100
AcDbEntity
  8
0
  6
Continuous
 62
     7
370
    15
100
AcDbLine
 10
2578.4222025236
 20
2457.6234213548
 30
0.0
 11
2596.2108448988
 21
2457.6234213548
 31
0.0
  0
LINE
  5
166
330
1F
100
AcDbEntity
  8
0
  6
Continuous
 62
     7
370
    15
100
AcDbLine
 10
2560.6335601484
 20
2457.6234213548
 30
0.0
 11
2578.4222025236
 21
2457.6234213548
 31
0.0
  0
LINE
  5
167
330
1F
100
AcDbEntity
  8
0
  6
Continuous
 62
     7
370
    15
100
AcDbLine
 10
3058.7522884135
 20
2457.6234213548
 30
0.0
 11
3076.5409307887
 21
2457.6234213548
 31
0.0
  0
LINE
  5
168
330
1F
100
AcDbEntity
  8
0
  6
Continuous
 62
     7
370
    15
100
AcDbLine
 10
3040.9636460383
 20
2457.6234213548
 30
0.0
 11
3058.7522884135
 21
2457.6234213548
 31
0.0
  0
LINE
  5
169
330
1F
100
AcDbEntity
  8
0
  6
Continuous
 62
     7
370
    15
100
AcDbLine
 10
2878.1709398651
 20
2457.6234213548
 30
0.0
 11
2895.9595822403
 21
2457.6234213548
 31
0.0
  0
LINE
  5
16A
330
1F
100
AcDbEntity
  8
0
  6
Continuous
 62
     7
370
    15
100
AcDbLine
 10
2860.3822974899
 20
2457.6234213548
 30
0.0
 11
2878.1709398651
 21
2457.6234213548
 31
0.0
  0
LINE
  5
16B
330
1F
100
AcDbEntity
  8
0
  6
Continuous
 62
     7
370
    15
100
AcDbLine
 10
3276.7536798784
 20
2457.6234213548
 30
0.0
 11
3294.5423222536
 21
2457.6234213548
 31
0.0
  0
LINE
  5
16C
330
1F
100
AcDbEntity
  8
0
  6
Continuous
 62
     7
370
    15
100
AcDbLine
 10
3258.9650375032
 20
2457.6234213548
 30
0.0
 11
3276.7536798784
 21
2457.6234213548
 31
0.0
  0
ARC
  5
16D
330
1F
100
AcDbEntity
  8
0
  6
Continuous
 62
     7
370
    15
100
AcDbCircle
 10
3928.7516531255
 20
2463.6234213548
 30
0.0
 40
4.000000000000053
100
AcDbArc
 50
90.0
 51
155.0
  0
ARC
  5
16E
330
1F
100
AcDbEntity
  8
0
  6
Continuous
 62
     7
370
    15
100
AcDbCircle
 10
3873.6550910391
 20
2463.6234213548
 30
0.0
 40
4.000000000000053
100
AcDbArc
 50
25.0
 51
90.0
  0
LINE
  5
16F
330
1F
100
AcDbEntity
  8
0
  6
Continuous
 62
     7
370
    15
100
AcDbLine
 10
3877.2803221872
 20
2465.3138944017
 30
0.0
 11
3879.7894985589
 21
2459.9329483078
 31
0.0
  0
LINE
  5
170
330
1F
100
AcDbEntity
  8
0
  6
Continuous
 62
     7
370
    15
100
AcDbLine
 10
3922.6172456057
 20
2459.9329483078
 30
0.0
 11
3925.1264219774
 21
2465.3138944017
 31
0.0
  0
ARC
  5
171
330
1F
100
AcDbEntity
  8
0
  6
Continuous
 62
     7
370
    15
100
AcDbCircle
 10
3918.9920144575
 20
2461.6234213548
 30
0.0
 40
4.000000000000053
100
AcDbArc
 50
270.0
 51
335.0
  0
ARC
  5
172
330
1F
100
AcDbEntity
  8
0
  6
Continuous
 62
     7
370
    15
100
AcDbCircle
 10
3883.4147297071
 20
2461.6234213548
 30
0.0
 40
4.000000000000053
100
AcDbArc
 50
205.0
 51
270.0
  0
ARC
  5
173
330
1F
100
AcDbEntity
  8
0
  6
Continuous
 62
     7
370
    15
100
AcDbCircle
 10
4327.3343931388
 20
2463.6234213548
 30
0.0
 40
4.000000000000053
100
AcDbArc
 50
90.0
 51
155.0
  0
ARC
  5
174
330
1F
100
AcDbEntity
  8
0
  6
Continuous
 62
     7
370
    15
100
AcDbCircle
 10
4272.2378310523
 20
2463.6234213548
 30
0.0
 40
4.000000000000053
100
AcDbArc
 50
25.0
 51
90.0
  0
LINE
  5
175
330
1F
100
AcDbEntity
  8
0
  6
Continuous
 62
     7
370
    15
100
AcDbLine
 10
4275.8630622005
 20
2465.3138944017
 30
0.0
 11
4278.3722385722
 21
2459.9329483078
 31
0.0
  0
LINE
  5
176
330
1F
100
AcDbEntity
  8
0
  6
Continuous
 62
     7
370
    15
100
AcDbLine
 10
4321.1999856189
 20
2459.9329483078
 30
0.0
 11
4323.7091619906
 21
2465.3138944017
 31
0.0
  0
ARC
  5
177
330
1F
100
AcDbEntity
  8
0
  6
Continuous
 62
     7
370
    15
100
AcDbCircle
 10
4317.5747544708
 20
2461.6234213548
 30
0.0
 40
4.000000000000053
100
AcDbArc
 50
270.0
 51
335.0
  0
ARC
  5
178
330
1F
100
AcDbEntity
  8
0
  6
Continuous
 62
     7
370
    15
100
AcDbCircle
 10
4281.9974697203
 20
2461.6234213548
 30
0.0
 40
4.000000000000053
100
AcDbArc
 50
205.0
 51
270.0
  0
ARC
  5
179
330
1F
100
AcDbEntity
  8
0
  6
Continuous
 62
     7
370
    15
100
AcDbCircle
 10
4146.7530445904
 20
2463.6234213548
 30
0.0
 40
4.000000000000053
100
AcDbArc
 50
90.0
 51
155.0
  0
ARC
  5
17A
330
1F
100
AcDbEntity
  8
0
  6
Continuous
 62
     7
370
    15
100
AcDbCircle
 10
4091.6564825039
 20
2463.6234213548
 30
0.0
 40
4.000000000000053
100
AcDbArc
 50
25.0
 51
90.0
  0
LINE
  5
17B
330
1F
100
AcDbEntity
  8
0
  6
Continuous
 62
     7
370
    15
100
AcDbLine
 10
4095.2817136521
 20
2465.3138944017
 30
0.0
 11
4097.7908900238
 21
2459.9329483078
 31
0.0
  0
LINE
  5
17C
330
1F
100
AcDbEntity
  8
0
  6
Continuous
 62
     7
370
    15
100
AcDbLine
 10
4140.6186370705
 20
2459.9329483078
 30
0.0
 11
4143.1278134423
 21
2465.3138944017
 31
0.0
  0
ARC
  5
17D
330
1F
100
AcDbEntity
  8
0
  6
Continuous
 62
     7
370
    15
100
AcDbCircle
 10
4136.9934059224
 20
2461.6234213548
 30
0.0
 40
4.000000000000053
100
AcDbArc
 50
270.0
 51
335.0
  0
ARC
  5
17E
330
1F
100
AcDbEntity
  8
0
  6
Continuous
 62
     7
370
    15
100
AcDbCircle
 10
4101.416121172
 20
2461.6234213548
 30
0.0
 40
4.0
100
AcDbArc
 50
205.0
 51
270.0
  0
ARC
  5
17F
330
1F
100
AcDbEntity
  8
0
  6
Continuous
 62
     7
370
    15
100
AcDbCircle
 10
4627.0831304803
 20
2463.6234213548
 30
0.0
 40
4.000000000000053
100
AcDbArc
 50
90.0
 51
155.0
  0
ARC
  5
180
330
1F
100
AcDbEntity
  8
0
  6
Continuous
 62
     7
370
    15
100
AcDbCircle
 10
4571.9865683939
 20
2463.6234213548
 30
0.0
 40
4.000000000000053
100
AcDbArc
 50
25.0
 51
90.0
  0
LINE
  5
181
330
1F
100
AcDbEntity
  8
0
  6
Continuous
 62
     7
370
    15
100
AcDbLine
 10
4575.611799542
 20
2465.3138944017
 30
0.0
 11
4578.1209759137
 21
2459.9329483078
 31
0.0
  0
LINE
  5
182
330
1F
100
AcDbEntity
  8
0
  6
Continuous
 62
     7
370
    15
100
AcDbLine
 10
4620.9487229605
 20
2459.9329483078
 30
0.0
 11
4623.4578993322
 21
2465.3138944017
 31
0.0
  0
ARC
  5
183
330
1F
100
AcDbEntity
  8
0
  6
Continuous
 62
     7
370
    15
100
AcDbCircle
 10
4617.3234918123
 20
2461.6234213548
 30
0.0
 40
4.000000000000053
100
AcDbArc
 50
270.0
 51
335.0
  0
ARC
  5
184
330
1F
100
AcDbEntity
  8
0
  6
Continuous
 62
     7
370
    15
100
AcDbCircle
 10
4581.7462070619
 20
2461.6234213548
 30
0.0
 40
4.000000000000053
100
AcDbArc
 50
205.0
 51
270.0
  0
ARC
  5
185
330
1F
100
AcDbEntity
  8
0
  6
Continuous
 62
     7
370
    15
100
AcDbCircle
 10
5425.4146078351
 20
2463.6234213548
 30
0.0
 40
4.000000000000053
100
AcDbArc
 50
90.0
 51
155.0
  0
ARC
  5
186
330
1F
100
AcDbEntity
  8
0
  6
Continuous
 62
     7
370
    15
100
AcDbCircle
 10
5370.3180457486
 20
2463.6234213548
 30
0.0
 40
4.000000000000053
100
AcDbArc
 50
25.0
 51
90.0
  0
LINE
  5
187
330
1F
100
AcDbEntity
  8
0
  6
Continuous
 62
     7
370
    15
100
AcDbLine
 10
5373.9432768968
 20
2465.3138944017
 30
0.0
 11
5376.4524532685
 21
2459.9329483078
 31
0.0
  0
LINE
  5
188
330
1F
100
AcDbEntity
  8
0
  6
Continuous
 62
     7
370
    15
100
AcDbLine
 10
5419.2802003152
 20
2459.9329483078
 30
0.0
 11
5421.789376687
 21
2465.3138944017
 31
0.0
  0
ARC
  5
189
330
1F
100
AcDbEntity
  8
0
  6
Continuous
 62
     7
370
    15
100
AcDbCircle
 10
5415.6549691671
 20
2461.6234213548
 30
0.0
 40
4.000000000000053
100
AcDbArc
 50
270.0
 51
335.0
  0
ARC
  5
18A
330
1F
100
AcDbEntity
  8
0
  6
Continuous
 62
     7
370
    15
100
AcDbCircle
 10
5380.0776844167
 20
2461.6234213548
 30
0.0
 40
4.000000000000053
100
AcDbArc
 50
205.0
 51
270.0
  0
ARC
  5
18B
330
1F
100
AcDbEntity
  8
0
  6
Continuous
 62
     7
370
    15
100
AcDbCircle
 10
5026.8318678218
 20
2463.6234213548
 30
0.0
 40
4.000000000000053
100
AcDbArc
 50
90.0
 51
155.0
  0
ARC
  5
18C
330
1F
100
AcDbEntity
  8
0
  6
Continuous
 62
     7
370
    15
100
AcDbCircle
 10
4971.7353057354
 20
2463.6234213548
 30
0.0
 40
4.000000000000053
100
AcDbArc
 50
25.0
 51
90.0
  0
LINE
  5
18D
330
1F
100
AcDbEntity
  8
0
  6
Continuous
 62
     7
370
    15
100
AcDbLine
 10
4975.3605368835
 20
2465.3138944017
 30
0.0
 11
4977.8697132552
 21
2459.9329483078
 31
0.0
  0
LINE
  5
18E
330
1F
100
AcDbEntity
  8
0
  6
Continuous
 62
     7
370
    15
100
AcDbLine
 10
5020.697460302
 20
2459.9329483078
 30
0.0
 11
5023.2066366737
 21
2465.3138944017
 31
0.0
  0
ARC
  5
18F
330
1F
100
AcDbEntity
  8
0
  6
Continuous
 62
     7
370
    15
100
AcDbCircle
 10
5017.0722291538
 20
2461.6234213548
 30
0.0
 40
4.000000000000053
100
AcDbArc
 50
270.0
 51
335.0
  0
ARC
  5
190
330
1F
100
AcDbEntity
  8
0
  6
Continuous
 62
     7
370
    15
100
AcDbCircle
 10
4981.4949444034
 20
2461.6234213548
 30
0.0
 40
4.000000000000053
100
AcDbArc
 50
205.0
 51
270.0
  0
ARC
  5
191
330
1F
100
AcDbEntity
  8
0
  6
Continuous
 62
     7
370
    15
100
AcDbCircle
 10
5207.4132163702
 20
2463.6234213548
 30
0.0
 40
4.000000000000053
100
AcDbArc
 50
90.0
 51
155.0
  0
ARC
  5
192
330
1F
100
AcDbEntity
  8
0
  6
Continuous
 62
     7
370
    15
100
AcDbCircle
 10
5152.3166542838
 20
2463.6234213548
 30
0.0
 40
4.000000000000053
100
AcDbArc
 50
25.0
 51
90.0
  0
LINE
  5
193
330
1F
100
AcDbEntity
  8
0
  6
Continuous
 62
     7
370
    15
100
AcDbLine
 10
5155.9418854319
 20
2465.3138944017
 30
0.0
 11
5158.4510618036
 21
2459.9329483078
 31
0.0
  0
LINE
  5
194
330
1F
100
AcDbEntity
  8
0
  6
Continuous
 62
     7
370
    15
100
AcDbLine
 10
5201.2788088504
 20
2459.9329483078
 30
0.0
 11
5203.7879852221
 21
2465.3138944017
 31
0.0
  0
ARC
  5
195
330
1F
100
AcDbEntity
  8
0
  6
Continuous
 62
     7
370
    15
100
AcDbCircle
 10
5197.6535777022
 20
2461.6234213548
 30
0.0
 40
4.0
100
AcDbArc
 50
270.0
 51
335.0
  0
ARC
  5
196
330
1F
100
AcDbEntity
  8
0
  6
Continuous
 62
     7
370
    15
100
AcDbCircle
 10
5162.0762929518
 20
2461.6234213548
 30
0.0
 40
4.000000000000053
100
AcDbArc
 50
205.0
 51
270.0
  0
ARC
  5
197
330
1F
100
AcDbEntity
  8
0
  6
Continuous
 62
     7
370
    15
100
AcDbCircle
 10
4727.0831304803
 20
2463.6234213548
 30
0.0
 40
4.000000000000053
100
AcDbArc
 50
90.0
 51
155.0
  0
ARC
  5
198
330
1F
100
AcDbEntity
  8
0
  6
Continuous
 62
     7
370
    15
100
AcDbCircle
 10
4671.9865683939
 20
2463.6234213548
 30
0.0
 40
4.000000000000053
100
AcDbArc
 50
25.0
 51
90.0
  0
LINE
  5
199
330
1F
100
AcDbEntity
  8
0
  6
Continuous
 62
     7
370
    15
100
AcDbLine
 10
4675.611799542
 20
2465.3138944017
 30
0.0
 11
4678.1209759137
 21
2459.9329483078
 31
0.0
  0
LINE
  5
19A
330
1F
100
AcDbEntity
  8
0
  6
Continuous
 62
     7
370
    15
100
AcDbLine
 10
4720.9487229605
 20
2459.9329483078
 30
0.0
 11
4723.4578993322
 21
2465.3138944017
 31
0.0
  0
ARC
  5
19B
330
1F
100
AcDbEntity
  8
0
  6
Continuous
 62
     7
370
    15
100
AcDbCircle
 10
4717.3234918123
 20
2461.6234213548
 30
0.0
 40
4.000000000000053
100
AcDbArc
 50
270.0
 51
335.0
  0
ARC
  5
19C
330
1F
100
AcDbEntity
  8
0
  6
Continuous
 62
     7
370
    15
100
AcDbCircle
 10
4681.7462070619
 20
2461.6234213548
 30
0.0
 40
4.000000000000053
100
AcDbArc
 50
205.0
 51
270.0
  0
LINE
  5
19D
330
1F
100
AcDbEntity
  8
0
  6
Continuous
 62
     7
370
    15
100
AcDbLine
 10
5288.6635290935
 20
3217.6234213548
 30
0.0
 11
5288.6635290935
 21
3257.6234213548
 31
0.0
  0
LINE
  5
19E
330
1F
100
AcDbEntity
  8
0
  6
Continuous
 62
     7
370
    15
100
AcDbLine
 10
4010.4061697806
 20
3217.6234213548
 30
0.0
 11
5288.6635290935
 21
3217.6234213548
 31
0.0
  0
LINE
  5
19F
330
1F
100
AcDbEntity
  8
0
  6
Continuous
 62
     7
370
    15
100
AcDbLine
 10
4010.4061697806
 20
3217.6234213548
 30
0.0
 11
4010.4061697806
 21
3257.6234213548
 31
0.0
  0
LINE
  5
1A0
330
1F
100
AcDbEntity
  8
0
  6
Continuous
 62
     7
370
    15
100
AcDbLine
 10
4010.4061697806
 20
3257.6234213548
 30
0.0
 11
5288.6635290935
 21
3257.6234213548
 31
0.0
  0
SPLINE
  5
1A1
330
1F
100
AcDbEntity
  8
0
  6
Continuous
 62
     7
370
    15
100
AcDbSpline
210
0.0
220
0.0
230
1.0
 70
     8
 71
     3
 72
    34
 73
    30
 74
     0
 42
0.000000001
 43
0.00000001
 40
0.0
 40
0.0
 40
0.0
 40
0.0
 40
0.1249999999999998
 40
0.1249999999999998
 40
0.2499999999999996
 40
0.2499999999999996
 40
0.3749999999999994
 40
0.3749999999999994
 40
0.4062499999999994
 40
0.4062499999999994
 40
0.4374999999999993
 40
0.4374999999999993
 40
0.4999999999999993
 40
0.4999999999999993
 40
0.5624999999999993
 40
0.5624999999999993
 40
0.5937499999999994
 40
0.5937499999999994
 40
0.6249999999999997
 40
0.6249999999999997
 40
0.75
 40
0.75
 40
0.8750000000000004
 40
0.8750000000000004
 40
0.9062500000000004
 40
0.9062500000000004
 40
0.9375000000000006
 40
0.9375000000000006
 40
1.0
 40
1.0
 40
1.0
 40
1.0
 10
3848.421729654282
 20
2471.07229650362
 30
0.0
 10
3834.471907299682
 20
2513.819723246653
 30
0.0
 10
3822.008063747526
 20
2556.886437285953
 30
0.0
 10
3800.010505916167
 20
2643.649452443186
 30
0.0
 10
3790.47684076023
 20
2687.345764116074
 30
0.0
 10
3774.33786422301
 20
2775.367593045051
 30
0.0
 10
3767.732512417477
 20
2819.693101615317
 30
0.0
 10
3761.329713047233
 20
2875.498326556141
 30
0.0
 10
3760.141923889654
 20
2886.680401731287
 30
0.0
 10
3757.955898056769
 20
2909.050880965598
 30
0.0
 10
3756.957155983018
 20
2920.243420253806
 30
0.0
 10
3754.243574999916
 20
2953.842924177825
 30
0.0
 10
3752.811301251809
 20
2976.271768672442
 30
0.0
 10
3750.701342870977
 20
3021.187887735742
 30
0.0
 10
3750.024569298137
 20
3043.655974629518
 30
0.0
 10
3749.576484419883
 20
3077.371849915731
 30
0.0
 10
3749.52169220437
 20
3088.616116413596
 30
0.0
 10
3749.601161920066
 20
3111.086090570318
 30
0.0
 10
3749.735344732754
 20
3122.313129177601
 30
0.0
 10
3750.876783711574
 20
3178.408724176251
 30
0.0
 10
3753.294021639188
 20
3223.1586205154
 30
0.0
 10
3761.118509886896
 20
3312.406782260356
 30
0.0
 10
3766.525755431539
 20
3356.905048068051
 30
0.0
 10
3775.167570136837
 20
3412.369432791714
 30
0.0
 10
3776.990209742092
 20
3423.454603091817
 30
0.0
 10
3780.824562622258
 20
3445.608114630691
 30
0.0
 10
3782.834530937429
 20
3456.666395555523
 30
0.0
 10
3789.142576555821
 20
3489.785860575189
 30
0.0
 10
3793.718715797198
 20
3511.791682591255
 30
0.0
 10
3798.66594938677
 20
3533.723619793484
 30
0.0
  0
ARC
  5
1A2
330
1F
100
AcDbEntity
  8
0
  6
Continuous
 62
     7
370
    15
100
AcDbCircle
 10
3803.5433498482
 20
3532.6234890679
 30
0.0
 40
4.999932286957539
100
AcDbArc
 50
90.0003557389
 51
167.2892563559
  0
LINE
  5
1A3
330
1F
100
AcDbEntity
  8
0
  6
Continuous
 62
     7
370
    15
100
AcDbLine
 10
3803.5433188045
 20
3537.6234213548
 30
0.0
 11
4194.562322794
 21
3537.6234213548
 31
0.0
  0
ARC
  5
1A4
330
1F
100
AcDbEntity
  8
0
  6
Continuous
 62
     7
370
    15
100
AcDbCircle
 10
3853.1749813054
 20
2472.6233328565
 30
0.0
 40
4.99991150187283
100
AcDbArc
 50
198.0720529342
 51
269.9996622483
  0
LINE
  5
1A5
330
1F
100
AcDbEntity
  8
0
  6
Continuous
 62
     7
370
    15
100
AcDbLine
 10
3997.4637816252
 20
2467.6234213548
 30
0.0
 11
3853.1749518315
 21
2467.6234213548
 31
0.0
  0
LINE
  5
1A6
330
1F
100
AcDbEntity
  8
0
  6
Continuous
 62
     7
370
    15
100
AcDbLine
 10
4644.5348494371
 20
2467.6234213548
 30
0.0
 11
3997.4637816252
 21
2467.6234213548
 31
0.0
  0
LINE
  5
1A7
330
1F
100
AcDbEntity
  8
0
  6
Continuous
 62
     7
370
    15
100
AcDbLine
 10
4194.562322794
 20
3537.6234213548
 30
0.0
 11
4644.5348494371
 21
3537.6234213548
 31
0.0
  0
LINE
  5
1A8
330
1F
100
AcDbEntity
  8
0
  6
Continuous
 62
     7
370
    15
100
AcDbLine
 10
3883.4147297071
 20
2457.6234213548
 30
0.0
 11
3918.9920144575
 21
2457.6234213548
 31
0.0
  0
LINE
  5
1A9
330
1F
100
AcDbEntity
  8
0
  6
Continuous
 62
     7
370
    15
100
AcDbLine
 10
4281.9974697203
 20
2457.6234213548
 30
0.0
 11
4317.5747544708
 21
2457.6234213548
 31
0.0
  0
ARC
  5
1AA
330
1F
100
AcDbEntity
  8
0
  6
Continuous
 62
     7
370
    15
100
AcDbCircle
 10
4644.5348494371
 20
3532.6234213548
 30
0.0
 40
5.0
100
AcDbArc
 50
0.0
 51
90.0
  0
LINE
  5
1AB
330
1F
100
AcDbEntity
  8
0
  6
Continuous
 62
     7
370
    15
100
AcDbLine
 10
4649.5348494371
 20
3532.6234213548
 30
0.0
 11
4649.5348494371
 21
3481.3435746092
 31
0.0
  0
LINE
  5
1AC
330
1F
100
AcDbEntity
  8
0
  6
Continuous
 62
     7
370
    15
100
AcDbLine
 10
4649.5348494371
 20
3481.3435746092
 30
0.0
 11
4649.5348494371
 21
3425.590299946
 31
0.0
  0
LINE
  5
1AD
330
1F
100
AcDbEntity
  8
0
  6
Continuous
 62
     7
370
    15
100
AcDbLine
 10
4101.416121172
 20
2457.6234213548
 30
0.0
 11
4136.9934059224
 21
2457.6234213548
 31
0.0
  0
SPLINE
  5
1AE
330
1F
100
AcDbEntity
  8
0
  6
Continuous
 62
     7
370
    15
100
AcDbSpline
210
0.0
220
0.0
230
1.0
 70
    24
 71
     3
 72
    26
 73
    22
 74
     0
 42
0.000000001
 43
0.00000001
 40
0.0
 40
0.0
 40
0.0
 40
0.0
 40
0.1249999999999958
 40
0.1249999999999958
 40
0.1874999999999911
 40
0.1874999999999911
 40
0.2499999999999865
 40
0.2499999999999865
 40
0.3124999999999818
 40
0.3124999999999818
 40
0.3749999999999771
 40
0.3749999999999771
 40
0.4999999999999828
 40
0.4999999999999828
 40
0.562499999999979
 40
0.562499999999979
 40
0.6249999999999754
 40
0.6249999999999754
 40
0.7499999999999836
 40
0.7499999999999836
 40
1.0
 40
1.0
 40
1.0
 40
1.0
 10
4649.534849437083
 20
3413.902270586163
 30
0.0
 10
4649.534849437083
 20
3414.632715192958
 30
0.0
 10
4649.534849437083
 20
3415.345913756846
 30
0.0
 10
4649.534849437083
 20
3416.39444429788
 30
0.0
 10
4649.534849437083
 20
3416.739985979484
 30
0.0
 10
4649.534849437083
 20
3417.40813625465
 30
0.0
 10
4649.534849437083
 20
3417.733050528858
 30
0.0
 10
4649.534849437083
 20
3418.366584030832
 30
0.0
 10
4649.534849437083
 20
3418.675193912899
 30
0.0
 10
4649.534849437083
 20
3419.277419577204
 30
0.0
 10
4649.534849437083
 20
3419.571557177298
 30
0.0
 10
4649.534849437083
 20
3420.418502519134
 30
0.0
 10
4649.534849437083
 20
3420.941529642334
 30
0.0
 10
4649.534849437083
 20
3421.674105622022
 30
0.0
 10
4649.534849437083
 20
3421.909550173957
 30
0.0
 10
4649.534849437083
 20
3422.363873994432
 30
0.0
 10
4649.534849437083
 20
3422.583435099876
 30
0.0
 10
4649.534849437083
 20
3423.211962950956
 30
0.0
 10
4649.534849437083
 20
3423.591276748788
 30
0.0
 10
4649.534849437083
 20
3424.624005848934
 30
0.0
 10
4649.534849437083
 20
3425.174223202966
 30
0.0
 10
4649.534849437083
 20
3425.590299946038
 30
0.0
  0
ARC
  5
1AF
330
1F
100
AcDbEntity
  8
0
  6
Continuous
 62
     7
370
    15
100
AcDbCircle
 10
4644.5348494371
 20
2472.6234213548
 30
0.0
 40
5.0
100
AcDbArc
 50
270.0
 51
0.0
  0
LINE
  5
1B0
330
1F
100
AcDbEntity
  8
0
  6
Continuous
 62
     7
370
    15
100
AcDbLine
 10
4649.5348494371
 20
3413.9022705862
 30
0.0
 11
4649.5348494371
 21
3257.6234213548
 31
0.0
  0
LINE
  5
1B1
330
1F
100
AcDbEntity
  8
0
  6
Continuous
 62
     7
370
    15
100
AcDbLine
 10
4649.5348494371
 20
3217.6234213548
 30
0.0
 11
4649.5348494371
 21
2472.6234213548
 31
0.0
  0
LINE
  5
1B2
330
1F
100
AcDbEntity
  8
0
  6
Continuous
 62
     7
370
    15
100
AcDbLine
 10
4581.7462070619
 20
2457.6234213548
 30
0.0
 11
4617.3234918123
 21
2457.6234213548
 31
0.0
  0
SPLINE
  5
1B3
330
1F
100
AcDbEntity
  8
0
  6
Continuous
 62
     7
370
    15
100
AcDbSpline
210
0.0
220
0.0
230
1.0
 70
     8
 71
     3
 72
    54
 73
    50
 74
     0
 42
0.000000001
 43
0.00000001
 40
0.0
 40
0.0
 40
0.0
 40
0.0
 40
0.0221680847386376
 40
0.0443369558044098
 40
0.0665050405443322
 40
0.0886872919662011
 40
0.1108703312222183
 40
0.1330525826450805
 40
0.1552490279226466
 40
0.1774462625465675
 40
0.1996427078248763
 40
0.2218533742235619
 40
0.2440648314859745
 40
0.266275497885182
 40
0.2885004127630703
 40
0.3107261200272091
 40
0.3329510349054176
 40
0.3551902257131871
 40
0.3774302104348818
 40
0.3996694012427813
 40
0.4219228955238389
 40
0.4441771852516568
 40
0.4664306795326583
 40
0.4831291017137794
 40
0.4998275238948828
 40
0.5114136371835798
 40
0.5345879969940326
 40
0.557762356804369
 40
0.5809574632570238
 40
0.6041543713256937
 40
0.6273512793933204
 40
0.6505463858445525
 40
0.6737703709120969
 40
0.6969961643369414
 40
0.7202219577601259
 40
0.7434459428254064
 40
0.7594639519373552
 40
0.7754819610492159
 40
0.7968485196578297
 40
0.8182157823397376
 40
0.8395823409471791
 40
0.8609615835586715
 40
0.8823415314997494
 40
0.9037207741097599
 40
0.9251127233750902
 40
0.946505379230442
 40
0.9678973284939104
 40
0.9839486642470548
 40
1.0
 40
1.0
 40
1.0
 40
1.0
 10
5500.403749487397
 20
3533.723619793484
 30
0.0
 10
5502.127781548475
 20
3525.956328918538
 30
0.0
 10
5505.575906824008
 20
3510.421471654018
 30
0.0
 10
5510.395704627147
 20
3487.04331258155
 30
0.0
 10
5514.957679276969
 20
3463.608726446309
 30
0.0
 10
5519.235605609938
 20
3440.115278737135
 30
0.0
 10
5523.235550611165
 20
3416.567817706595
 30
0.0
 10
5526.955013901244
 20
3392.969247267852
 30
0.0
 10
5530.393628536861
 20
3369.322978626378
 30
0.0
 10
5533.550679762039
 20
3345.632333036564
 30
0.0
 10
5536.425634570733
 20
3321.900660414005
 30
0.0
 10
5539.0177472983
 20
3298.131294917929
 30
0.0
 10
5541.326555324578
 20
3274.327613004186
 30
0.0
 10
5543.351609021352
 20
3250.49298117046
 30
0.0
 10
5545.092290732372
 20
3226.630766385252
 30
0.0
 10
5546.548255687493
 20
3202.744365540486
 30
0.0
 10
5547.719175047054
 20
3178.837165673596
 30
0.0
 10
5548.604550778001
 20
3154.912560252929
 30
0.0
 10
5549.204159492442
 20
3130.97396267864
 30
0.0
 10
5549.517793634284
 20
3107.024777008266
 30
0.0
 10
5549.54507530101
 20
3083.068415642821
 30
0.0
 10
5549.285906486546
 20
3059.108316745132
 30
0.0
 10
5548.785705115162
 20
3037.146266905566
 30
0.0
 10
5548.121950743494
 20
3017.18388409947
 30
0.0
 10
5547.440692428933
 20
3001.053430262444
 30
0.0
 10
5546.521174335217
 20
2982.607405710102
 30
0.0
 10
5545.292007949721
 20
2961.850092301768
 30
0.0
 10
5543.506471078303
 20
2936.953803729572
 30
0.0
 10
5541.410159072977
 20
2912.073610283498
 30
0.0
 10
5539.003171000918
 20
2887.213424642918
 30
0.0
 10
5536.286644635454
 20
2862.385154886636
 30
0.0
 10
5533.259757592306
 20
2837.583017393034
 30
0.0
 10
5529.92225862225
 20
2812.810302228064
 30
0.0
 10
5526.274326051372
 20
2788.070258661902
 30
0.0
 10
5522.318066968493
 20
2763.37765669807
 30
0.0
 10
5518.495112483697
 20
2741.285391243512
 30
0.0
 10
5514.90740829233
 20
2721.779281031538
 30
0.0
 10
5511.278219345383
 20
2702.959345154806
 30
0.0
 10
5507.077671616728
 20
2682.295168984523
 30
0.0
 10
5502.236235841623
 20
2659.803921186233
 30
0.0
 10
5497.135940904627
 20
2637.36528155375
 30
0.0
 10
5491.777190257844
 20
2614.982277556279
 30
0.0
 10
5486.160583360501
 20
2592.657889189618
 30
0.0
 10
5480.286859029773
 20
2570.395046693341
 30
0.0
 10
5474.156138470088
 20
2548.196881382148
 30
0.0
 10
5467.770568192643
 20
2526.065897302327
 30
0.0
 10
5461.679786742574
 20
2505.846444303815
 30
0.0
 10
5455.968639735398
 20
2487.515714220689
 30
0.0
 10
5452.421526058382
 20
2476.55343574262
 30
0.0
 10
5450.647969219884
 20
2471.07229650362
 30
0.0
  0
LINE
  5
1B4
330
1F
100
AcDbEntity
  8
0
  6
Continuous
 62
     7
370
    15
100
AcDbLine
 10
5104.5073760802
 20
3537.6234213548
 30
0.0
 11
5495.5263800697
 21
3537.6234213548
 31
0.0
  0
LINE
  5
1B5
330
1F
100
AcDbEntity
  8
0
  6
Continuous
 62
     7
370
    15
100
AcDbLine
 10
5445.8947470427
 20
2467.6234213548
 30
0.0
 11
5301.6059172489
 21
2467.6234213548
 31
0.0
  0
ARC
  5
1B6
330
1F
100
AcDbEntity
  8
0
  6
Continuous
 62
     7
370
    15
100
AcDbCircle
 10
5445.8947175688
 20
2472.6233328565
 30
0.0
 40
4.999911501872264
100
AcDbArc
 50
270.0003377517
 51
341.9279470658
  0
ARC
  5
1B7
330
1F
100
AcDbEntity
  8
0
  6
Continuous
 62
     7
370
    15
100
AcDbCircle
 10
5495.526349026
 20
3532.6234890679
 30
0.0
 40
4.99993228695952
100
AcDbArc
 50
12.7107436441
 51
89.9996442611
  0
LINE
  5
1B8
330
1F
100
AcDbEntity
  8
0
  6
Continuous
 62
     7
370
    15
100
AcDbLine
 10
5301.6059172489
 20
2467.6234213548
 30
0.0
 11
4654.5348494371
 21
2467.6234213548
 31
0.0
  0
LINE
  5
1B9
330
1F
100
AcDbEntity
  8
0
  6
Continuous
 62
     7
370
    15
100
AcDbLine
 10
4654.5348494371
 20
3537.6234213548
 30
0.0
 11
5104.5073760802
 21
3537.6234213548
 31
0.0
  0
LINE
  5
1BA
330
1F
100
AcDbEntity
  8
0
  6
Continuous
 62
     7
370
    15
100
AcDbLine
 10
5380.0776844179
 20
2457.6234213548
 30
0.0
 11
5415.6549691671
 21
2457.6234213548
 31
0.0
  0
LINE
  5
1BB
330
1F
100
AcDbEntity
  8
0
  6
Continuous
 62
     7
370
    15
100
AcDbLine
 10
4981.4949444046
 20
2457.6234213548
 30
0.0
 11
5017.0722291538
 21
2457.6234213548
 31
0.0
  0
ARC
  5
1BC
330
1F
100
AcDbEntity
  8
0
  6
Continuous
 62
     7
370
    15
100
AcDbCircle
 10
4654.5348494371
 20
3532.6234213548
 30
0.0
 40
5.0
100
AcDbArc
 50
90.0
 51
180.0
  0
LINE
  5
1BD
330
1F
100
AcDbEntity
  8
0
  6
Continuous
 62
     7
370
    15
100
AcDbLine
 10
4649.5348494371
 20
3425.590299946
 30
0.0
 11
4649.5348494371
 21
3481.3435746092
 31
0.0
  0
LINE
  5
1BE
330
1F
100
AcDbEntity
  8
0
  6
Continuous
 62
     7
370
    15
100
AcDbLine
 10
5162.076292953
 20
2457.6234213548
 30
0.0
 11
5197.6535777022
 21
2457.6234213548
 31
0.0
  0
SPLINE
  5
1BF
330
1F
100
AcDbEntity
  8
0
  6
Continuous
 62
     7
370
    15
100
AcDbSpline
210
0.0
220
0.0
230
1.0
 70
    24
 71
     3
 72
    21
 73
    17
 74
     0
 42
0.000000001
 43
0.00000001
 40
0.0
 40
0.0
 40
0.0
 40
0.0
 40
0.0554685914030143
 40
0.1480474014497324
 40
0.2228361122667161
 40
0.2991665715616214
 40
0.3741848965913325
 40
0.4492503286902577
 40
0.5254545400111039
 40
0.604037375271445
 40
0.6705364269467184
 40
0.7791678690554185
 40
0.8210230991167019
 40
0.9092027068079259
 40
0.9770102840534967
 40
0.9999999999999999
 40
0.9999999999999999
 40
0.9999999999999999
 40
0.9999999999999999
 10
4649.534849437083
 20
3425.590299946038
 30
0.0
 10
4649.534849437083
 20
3425.49431982461
 30
0.0
 10
4649.534849437083
 20
3425.238145885289
 30
0.0
 10
4649.534849437083
 20
3424.762332815641
 30
0.0
 10
4649.534849437083
 20
3424.156466307696
 30
0.0
 10
4649.534849437083
 20
3423.516416408504
 30
0.0
 10
4649.534849437083
 20
3422.798664004244
 30
0.0
 10
4649.534849437083
 20
3422.003712338847
 30
0.0
 10
4649.534849437083
 20
3421.115880638345
 30
0.0
 10
4649.534849437083
 20
3420.180596709264
 30
0.0
 10
4649.534849437083
 20
3419.022608192677
 30
0.0
 10
4649.534849437083
 20
3417.941353568038
 30
0.0
 10
4649.534849437083
 20
3416.679943232583
 30
0.0
 10
4649.534849437083
 20
3415.583231109859
 30
0.0
 10
4649.534849437083
 20
3414.557469383224
 30
0.0
 10
4649.534849437083
 20
3414.034648037217
 30
0.0
 10
4649.534849437083
 20
3413.902270586163
 30
0.0
  0
ARC
  5
1C0
330
1F
100
AcDbEntity
  8
0
  6
Continuous
 62
     7
370
    15
100
AcDbCircle
 10
4654.5348494371
 20
2472.6234213548
 30
0.0
 40
5.0
100
AcDbArc
 50
180.0
 51
270.0
  0
LINE
  5
1C1
330
1F
100
AcDbEntity
  8
0
  6
Continuous
 62
     7
370
    15
100
AcDbLine
 10
4681.7462070631
 20
2457.6234213548
 30
0.0
 11
4717.3234918123
 21
2457.6234213548
 31
0.0
  0
LINE
  5
1C2
330
1F
100
AcDbEntity
  8
0
  6
Continuous
 62
     7
370
    15
100
AcDbLine
 10
4199.562020889
 20
3481.3435746092
 30
0.0
 11
4199.562020889
 21
3532.6234213548
 31
0.0
  0
LINE
  5
1C3
330
1F
100
AcDbEntity
  8
0
  6
Continuous
 62
     7
370
    15
100
AcDbLine
 10
4649.5348494371
 20
3425.590299946
 30
0.0
 11
4649.5348494371
 21
3481.3435746092
 31
0.0
  0
LINE
  5
1C4
330
1F
100
AcDbEntity
  8
0
  6
Continuous
 62
     7
370
    15
100
AcDbLine
 10
4000.9993155312
 20
2472.6234213548
 30
0.0
 11
4000.9993155312
 21
3413.9022705862
 31
0.0
  0
LINE
  5
1C5
330
1F
100
AcDbEntity
  8
0
  6
Continuous
 62
     7
370
    15
100
AcDbLine
 10
5099.5076779852
 20
3532.6234213548
 30
0.0
 11
5099.5076779852
 21
3481.3435746092
 31
0.0
  0
LINE
  5
1C6
330
1F
100
AcDbEntity
  8
0
  6
Continuous
 62
     7
370
    15
100
AcDbLine
 10
5298.070383343
 20
3413.9022705862
 30
0.0
 11
5298.070383343
 21
2472.6234213548
 31
0.0
  0
LINE
  5
1C7
330
1F
100
AcDbEntity
  8
0
  6
Continuous
 62
     7
370
    15
100
AcDbLine
 10
4649.5348494371
 20
3481.3435746092
 30
0.0
 11
4649.5348494371
 21
3425.590299946
 31
0.0
  0
LINE
  5
1C8
330
1F
100
AcDbEntity
  8
0
  6
Continuous
 62
     7
370
    15
100
AcDbLine
 10
4644.5506377824
 20
3476.5544431831
 30
0.0
 11
4195.9989754701
 21
3476.5544431831
 31
0.0
  0
LINE
  5
1C9
330
1F
100
AcDbEntity
  8
0
  6
Continuous
 62
     7
370
    15
100
AcDbLine
 10
5103.0707234041
 20
3476.5544431831
 30
0.0
 11
4654.5190610917
 21
3476.5544431831
 31
0.0
  0
SPLINE
  5
1CA
330
1F
100
AcDbEntity
  8
0
  6
Continuous
 62
     7
370
    15
100
AcDbSpline
210
0.0
220
0.0
230
1.0
 70
     8
 71
     3
 72
    14
 73
    10
 74
     0
 42
0.000000001
 43
0.00000001
 40
0.0
 40
0.0
 40
0.0
 40
0.0
 40
0.1440346825052051
 40
0.1440346825052051
 40
0.1440346825052051
 40
0.1840346825054878
 40
0.1840346825054878
 40
0.1840346825054878
 40
0.1940346825054907
 40
0.1940346825054907
 40
0.1940346825054907
 40
0.1940346825054907
 10
4010.146802072988
 20
3420.801168519933
 30
0.0
 10
4056.133652082374
 20
3434.596805485543
 30
0.0
 10
4102.120524953908
 20
3448.392366237127
 30
0.0
 10
4148.107446505543
 20
3462.187764680714
 30
0.0
 10
4160.878515460032
 20
3466.018897072993
 30
0.0
 10
4173.649588323934
 20
3469.850016430851
 30
0.0
 10
4186.420666147473
 20
3473.681119251654
 30
0.0
 10
4189.613435603346
 20
3474.638894956851
 30
0.0
 10
4192.806205370862
 20
3475.596669622943
 30
0.0
 10
4195.998975470052
 20
3476.554443183114
 30
0.0
  0
SPLINE
  5
1CB
330
1F
100
AcDbEntity
  8
0
  6
Continuous
 62
     7
370
    15
100
AcDbSpline
210
0.0
220
0.0
230
1.0
 70
     8
 71
     3
 72
    24
 73
    20
 74
     0
 42
0.000000001
 43
0.00000001
 40
0.0
 40
0.0
 40
0.0
 40
0.0
 40
0.0625000000000008
 40
0.0625000000000008
 40
0.1250000000000016
 40
0.1250000000000016
 40
0.1875000000000024
 40
0.1875000000000024
 40
0.2500000000000033
 40
0.2500000000000033
 40
0.3750000000000049
 40
0.3750000000000049
 40
0.5000000000000066
 40
0.5000000000000066
 40
0.6250000000000082
 40
0.6250000000000082
 40
0.7500000000000098
 40
0.7500000000000098
 40
1.0
 40
1.0
 40
1.0
 40
1.0
 10
4000.99931553115
 20
3413.902270586163
 30
0.0
 10
4001.03502330231
 20
3414.16105503494
 30
0.0
 10
4001.10440672551
 20
3414.406504630937
 30
0.0
 10
4001.288069502689
 20
3414.879627725828
 30
0.0
 10
4001.403458407173
 20
3415.108270008271
 30
0.0
 10
4001.664410124781
 20
3415.545011684769
 30
0.0
 10
4001.80981608306
 20
3415.753007843775
 30
0.0
 10
4002.118153739902
 20
3416.148120467753
 30
0.0
 10
4002.281768598889
 20
3416.336201240016
 30
0.0
 10
4002.794541015347
 20
3416.87844798496
 30
0.0
 10
4003.166961858683
 20
3417.212210931933
 30
0.0
 10
4003.944508911635
 20
3417.832472496963
 30
0.0
 10
4004.348254382364
 20
3418.117854407101
 30
0.0
 10
4005.178384802867
 20
3418.651192023178
 30
0.0
 10
4005.604867035492
 20
3418.898986888758
 30
0.0
 10
4006.47703303036
 20
3419.36282912457
 30
0.0
 10
4006.922898663458
 20
3419.578791404625
 30
0.0
 10
4008.275363085283
 20
3420.178849121525
 30
0.0
 10
4009.200355251134
 20
3420.518001372202
 30
0.0
 10
4010.146802072988
 20
3420.801168519933
 30
0.0
  0
SPLINE
  5
1CC
330
1F
100
AcDbEntity
  8
0
  6
Continuous
 62
     7
370
    15
100
AcDbSpline
210
0.0
220
0.0
230
1.0
 70
     8
 71
     3
 72
    14
 73
    10
 74
     0
 42
0.000000001
 43
0.00000001
 40
0.0
 40
0.0
 40
0.0
 40
0.0
 40
0.1440346825048149
 40
0.1440346825048149
 40
0.1440346825048149
 40
0.1840346825048752
 40
0.1840346825048752
 40
0.1840346825048752
 40
0.1940346825048756
 40
0.1940346825048756
 40
0.1940346825048756
 40
0.1940346825048756
 10
5103.070723404114
 20
3476.554443183114
 30
0.0
 10
5149.057686157871
 20
3462.759182118345
 30
0.0
 10
5195.044583781315
 20
3448.963703885814
 30
0.0
 10
5241.031453074644
 20
3435.168131211146
 30
0.0
 10
5253.802507516431
 20
3431.336950432997
 30
0.0
 10
5266.573559562687
 20
3427.50576166828
 30
0.0
 10
5279.344609623667
 20
3423.674566284982
 30
0.0
 10
5282.537372138909
 20
3422.716767439159
 30
0.0
 10
5285.730134529583
 20
3421.75896817804
 30
0.0
 10
5288.922896801178
 20
3420.801168519933
 30
0.0
  0
SPLINE
  5
1CD
330
1F
100
AcDbEntity
  8
0
  6
Continuous
 62
     7
370
    15
100
AcDbSpline
210
0.0
220
0.0
230
1.0
 70
     8
 71
     3
 72
    22
 73
    18
 74
     0
 42
0.000000001
 43
0.00000001
 40
0.0
 40
0.0
 40
0.0
 40
0.0
 40
0.25
 40
0.25
 40
0.375
 40
0.375
 40
0.5
 40
0.5
 40
0.625
 40
0.625
 40
0.75
 40
0.75
 40
0.875
 40
0.875
 40
0.9375
 40
0.9375
 40
1.0
 40
1.0
 40
1.0
 40
1.0
 10
5288.922896801178
 20
3420.801168519933
 30
0.0
 10
5289.869917278726
 20
3420.517829740324
 30
0.0
 10
5290.793982363394
 20
3420.178862873659
 30
0.0
 10
5292.142976661335
 20
3419.580559036211
 30
0.0
 10
5292.586384366958
 20
3419.365971532822
 30
0.0
 10
5293.458954742081
 20
3418.90230800546
 30
0.0
 10
5293.888935620008
 20
3418.652676560515
 30
0.0
 10
5294.721781961248
 20
3418.117681041908
 30
0.0
 10
5295.125769551672
 20
3417.831986407162
 30
0.0
 10
5295.901413513504
 20
3417.213290429993
 30
0.0
 10
5296.275568158838
 20
3416.878205844836
 30
0.0
 10
5296.96166244807
 20
3416.15229023894
 30
0.0
 10
5297.275090586631
 20
3415.762931310561
 30
0.0
 10
5297.666157586791
 20
3415.108401942533
 30
0.0
 10
5297.781359032782
 20
3414.880175422947
 30
0.0
 10
5297.964966595823
 20
3414.407491493644
 30
0.0
 10
5298.034558035302
 20
3414.16190685601
 30
0.0
 10
5298.070383343015
 20
3413.902270586163
 30
0.0
  0
SPLINE
  5
1CE
330
1F
100
AcDbEntity
  8
0
  6
Continuous
 62
     7
370
    15
100
AcDbSpline
210
0.0
220
0.0
230
1.0
 70
     8
 71
     3
 72
    14
 73
    10
 74
     0
 42
0.000000001
 43
0.00000001
 40
0.0
 40
0.0
 40
0.0
 40
0.0
 40
0.0100000000000029
 40
0.0100000000000029
 40
0.0100000000000029
 40
0.0500000000002856
 40
0.0500000000002856
 40
0.0500000000002856
 40
0.1940346825054907
 40
0.1940346825054907
 40
0.1940346825054907
 40
0.1940346825054907
 10
4195.998975470052
 20
3476.554443183114
 30
0.0
 10
4192.806205370862
 20
3475.596669622942
 30
0.0
 10
4189.613435603346
 20
3474.638894956851
 30
0.0
 10
4186.420666147473
 20
3473.681119251654
 30
0.0
 10
4173.649588323934
 20
3469.850016430851
 30
0.0
 10
4160.878515460032
 20
3466.018897072993
 30
0.0
 10
4148.107446505543
 20
3462.187764680714
 30
0.0
 10
4102.120524953908
 20
3448.392366237127
 30
0.0
 10
4056.133652082374
 20
3434.596805485543
 30
0.0
 10
4010.146802072988
 20
3420.801168519933
 30
0.0
  0
SPLINE
  5
1CF
330
1F
100
AcDbEntity
  8
0
  6
Continuous
 62
     7
370
    15
100
AcDbSpline
210
0.0
220
0.0
230
1.0
 70
     8
 71
     3
 72
    34
 73
    30
 74
     0
 42
0.000000001
 43
0.00000001
 40
0.0
 40
0.0
 40
0.0
 40
0.0
 40
0.0624999999999999
 40
0.0624999999999999
 40
0.1249999999999999
 40
0.1249999999999999
 40
0.2499999999999994
 40
0.2499999999999994
 40
0.3749999999999992
 40
0.3749999999999992
 40
0.4374999999999991
 40
0.4374999999999991
 40
0.4999999999999991
 40
0.4999999999999991
 40
0.5312499999999991
 40
0.5312499999999991
 40
0.562499999999999
 40
0.562499999999999
 40
0.593749999999999
 40
0.593749999999999
 40
0.624999999999999
 40
0.624999999999999
 40
0.7499999999999993
 40
0.7499999999999993
 40
0.8749999999999998
 40
0.8749999999999998
 40
0.9374999999999999
 40
0.9374999999999999
 40
1.0
 40
1.0
 40
1.0
 40
1.0
 10
4010.146802072988
 20
3420.801168519933
 30
0.0
 10
4023.181585887071
 20
3424.680905911559
 30
0.0
 10
4036.22616000621
 20
3428.441947807908
 30
0.0
 10
4062.339342454865
 20
3435.67787473079
 30
0.0
 10
4075.407947901993
 20
3439.152769947546
 30
0.0
 10
4114.657951534262
 20
3449.061479937285
 30
0.0
 10
4140.883114022497
 20
3454.982570831924
 30
0.0
 10
4193.505357811589
 20
3464.894944765885
 30
0.0
 10
4219.903153780583
 20
3468.879325234499
 30
0.0
 10
4259.674464961118
 20
3472.965544968778
 30
0.0
 10
4272.960641150415
 20
3474.013081315233
 30
0.0
 10
4299.596596231457
 20
3475.427198553223
 30
0.0
 10
4312.946407503032
 20
3475.793506088232
 30
0.0
 10
4333.020860119366
 20
3475.812595621303
 30
0.0
 10
4339.716516518478
 20
3475.730731590626
 30
0.0
 10
4353.102079242582
 20
3475.391656869217
 30
0.0
 10
4359.793484701012
 20
3475.134474203591
 30
0.0
 10
4373.173551262879
 20
3474.448022254746
 30
0.0
 10
4379.862868319869
 20
3474.018709396778
 30
0.0
 10
4393.235990926521
 20
3472.993204891523
 30
0.0
 10
4399.915959812817
 20
3472.397338659135
 30
0.0
 10
4433.284048843682
 20
3469.020403023687
 30
0.0
 10
4459.876465007301
 20
3465.041488215792
 30
0.0
 10
4512.897620467726
 20
3455.113441339676
 30
0.0
 10
4539.327316221536
 20
3449.171341510374
 30
0.0
 10
4578.880169832208
 20
3439.219037383148
 30
0.0
 10
4592.040638994344
 20
3435.729762603224
 30
0.0
 10
4618.32165226265
 20
3428.466605593077
 30
0.0
 10
4631.442195880916
 20
3424.692704374416
 30
0.0
 10
4644.546059176656
 20
3420.801168519933
 30
0.0
  0
SPLINE
  5
1D0
330
1F
100
AcDbEntity
  8
0
  6
Continuous
 62
     7
370
    15
100
AcDbSpline
210
0.0
220
0.0
230
1.0
 70
     8
 71
     3
 72
    14
 73
    10
 74
     0
 42
0.000000001
 43
0.00000001
 40
0.0
 40
0.0
 40
0.0
 40
0.0
 40
0.0100000000000004
 40
0.0100000000000004
 40
0.0100000000000004
 40
0.0500000000000607
 40
0.0500000000000607
 40
0.0500000000000607
 40
0.1940346825048756
 40
0.1940346825048756
 40
0.1940346825048756
 40
0.1940346825048756
 10
5288.922896801178
 20
3420.801168519933
 30
0.0
 10
5285.730134529583
 20
3421.75896817804
 30
0.0
 10
5282.537372138909
 20
3422.716767439159
 30
0.0
 10
5279.344609623667
 20
3423.674566284982
 30
0.0
 10
5266.573559562687
 20
3427.50576166828
 30
0.0
 10
5253.802507516431
 20
3431.336950432997
 30
0.0
 10
5241.031453074644
 20
3435.168131211145
 30
0.0
 10
5195.044583781315
 20
3448.963703885814
 30
0.0
 10
5149.057686157871
 20
3462.759182118345
 30
0.0
 10
5103.070723404114
 20
3476.554443183114
 30
0.0
  0
SPLINE
  5
1D1
330
1F
100
AcDbEntity
  8
0
  6
Continuous
 62
     7
370
    15
100
AcDbSpline
210
0.0
220
0.0
230
1.0
 70
     8
 71
     3
 72
    34
 73
    30
 74
     0
 42
0.000000001
 43
0.00000001
 40
0.0
 40
0.0
 40
0.0
 40
0.0
 40
0.0624999999999999
 40
0.0624999999999999
 40
0.1249999999999999
 40
0.1249999999999999
 40
0.2499999999999994
 40
0.2499999999999994
 40
0.3749999999999992
 40
0.3749999999999992
 40
0.4374999999999991
 40
0.4374999999999991
 40
0.4999999999999991
 40
0.4999999999999991
 40
0.5312499999999991
 40
0.5312499999999991
 40
0.562499999999999
 40
0.562499999999999
 40
0.593749999999999
 40
0.593749999999999
 40
0.624999999999999
 40
0.624999999999999
 40
0.7499999999999993
 40
0.7499999999999993
 40
0.8749999999999998
 40
0.8749999999999998
 40
0.9374999999999999
 40
0.9374999999999999
 40
1.0
 40
1.0
 40
1.0
 40
1.0
 10
4654.523639697502
 20
3420.801168519933
 30
0.0
 10
4667.587774348776
 20
3424.680905911559
 30
0.0
 10
4680.66259658603
 20
3428.441947807908
 30
0.0
 10
4706.837576734489
 20
3435.67787473079
 30
0.0
 10
4719.937735766282
 20
3439.152769947546
 30
0.0
 10
4759.283047037061
 20
3449.061479937285
 30
0.0
 10
4785.572895143639
 20
3454.982570831924
 30
0.0
 10
4838.313635162646
 20
3464.894944765885
 30
0.0
 10
4864.765003536018
 20
3468.879325234499
 30
0.0
 10
4904.593605097991
 20
3472.965544968778
 30
0.0
 10
4917.895004229224
 20
3474.013081315233
 30
0.0
 10
4944.551694953338
 20
3475.427198553223
 30
0.0
 10
4957.907001345103
 20
3475.793506088232
 30
0.0
 10
4977.98173835312
 20
3475.812595621303
 30
0.0
 10
4984.676172655479
 20
3475.730731590626
 30
0.0
 10
4998.056702021257
 20
3475.391656869217
 30
0.0
 10
5004.744296864432
 20
3475.134474203591
 30
0.0
 10
5018.114287345687
 20
3474.448022254746
 30
0.0
 10
5024.797338722956
 20
3474.018709396778
 30
0.0
 10
5038.155686183241
 20
3472.993204891523
 30
0.0
 10
5044.827150858814
 20
3472.397338659135
 30
0.0
 10
5078.147814044134
 20
3469.020403023687
 30
0.0
 10
5104.686603977373
 20
3465.041488215792
 30
0.0
 10
5157.588859304194
 20
3455.113441339676
 30
0.0
 10
5183.953529607122
 20
3449.171341510374
 30
0.0
 10
5223.410565064107
 20
3439.219037383148
 30
0.0
 10
5236.539329670345
 20
3435.729762603224
 30
0.0
 10
5262.758286315458
 20
3428.466605593077
 30
0.0
 10
5275.848473599899
 20
3424.692704374416
 30
0.0
 10
5288.922896801178
 20
3420.801168519933
 30
0.0
  0
ELLIPSE
  5
1D2
330
1F
100
AcDbEntity
  8
0
  6
Continuous
 62
     7
370
    15
100
AcDbEllipse
 10
4194.562322794
 20
3532.6234213548
 30
0.0
 11
0.0
 21
5.0
 31
0.0
210
0.0
220
0.0
230
1.0
 40
0.999939619
 41
4.712388980384704
 42
6.283185307179586
  0
ELLIPSE
  5
1D3
330
1F
100
AcDbEntity
  8
0
  6
Continuous
 62
     7
370
    15
100
AcDbEllipse
 10
4194.562322794
 20
3481.3435746092
 30
0.0
 11
0.0
 21
5.0
 31
0.0
210
0.0
220
0.0
230
1.0
 40
0.999939619
 41
3.433049448067682
 42
4.712388980384704
  0
ELLIPSE
  5
1D4
330
1F
100
AcDbEntity
  8
0
  6
Continuous
 62
     7
370
    15
100
AcDbEllipse
 10
3997.4637816252
 20
2472.6234213548
 30
0.0
 11
0.0
 21
5.0
 31
0.0
210
0.0
220
0.0
230
1.0
 40
0.7071067812
 41
3.141592653589793
 42
4.71238898038379
  0
ELLIPSE
  5
1D5
330
1F
100
AcDbEntity
  8
0
  6
Continuous
 62
     7
370
    15
100
AcDbEllipse
 10
5104.5073760802
 20
3532.6234213548
 30
0.0
 11
0.0
 21
5.0
 31
0.0
210
0.0
220
0.0
230
1.0
 40
0.999939619
 41
0.0
 42
1.570796326794897
  0
ELLIPSE
  5
1D6
330
1F
100
AcDbEntity
  8
0
  6
Continuous
 62
     7
370
    15
100
AcDbEllipse
 10
5104.5073760802
 20
3481.3435746092
 30
0.0
 11
0.0
 21
5.0
 31
0.0
210
0.0
220
0.0
230
1.0
 40
0.999939619
 41
1.570796326794897
 42
2.850135859111869
  0
ELLIPSE
  5
1D7
330
1F
100
AcDbEntity
  8
0
  6
Continuous
 62
     7
370
    15
100
AcDbEllipse
 10
5301.6059172489
 20
2472.6234213548
 30
0.0
 11
0.0
 21
5.0
 31
0.0
210
0.0
220
0.0
230
1.0
 40
0.7071067812
 41
1.570796326794897
 42
3.141592653589793
  0
ELLIPSE
  5
1D8
330
1F
100
AcDbEntity
  8
0
  6
Continuous
 62
     7
370
    15
100
AcDbEllipse
 10
4644.5348494371
 20
3481.3435746092
 30
0.0
 11
-5.0
 21
0.0
 31
0.0
210
0.0
220
0.0
230
1.0
 40
0.9578310604
 41
1.573954001114435
 42
3.141592653589793
  0
ELLIPSE
  5
1D9
330
1F
100
AcDbEntity
  8
0
  6
Continuous
 62
     7
370
    15
100
AcDbEllipse
 10
4644.5348494371
 20
3425.590299946
 30
0.0
 11
-5.0
 21
0.0
 31
0.0
210
0.0
220
0.0
230
1.0
 40
0.9578286924
 41
1.573038276588384
 42
3.141592653589793
  0
ELLIPSE
  5
1DA
330
1F
100
AcDbEntity
  8
0
  6
Continuous
 62
     7
370
    15
100
AcDbEllipse
 10
4654.5348494371
 20
3481.3435746092
 30
0.0
 11
-5.0
 21
0.0
 31
0.0
210
0.0
220
0.0
230
1.0
 40
0.9578310604
 41
0.0
 42
1.567638652475176
  0
ELLIPSE
  5
1DB
330
1F
100
AcDbEntity
  8
0
  6
Continuous
 62
     7
370
    15
100
AcDbEllipse
 10
4654.5348494371
 20
3425.590299946
 30
0.0
 11
-5.0
 21
0.0
 31
0.0
210
0.0
220
0.0
230
1.0
 40
0.9578286924
 41
0.0
 42
1.568554377001592
  0
ARC
  5
1DC
330
1F
100
AcDbEntity
  8
0
  6
Continuous
 62
     7
370
    15
100
AcDbCircle
 10
2155.9402645651
 20
1727.487097132
 30
0.0
 40
5.00001237983961
100
AcDbArc
 50
359.6458699194
 51
89.9058164494
  0
ARC
  5
1DD
330
1F
100
AcDbEntity
  8
0
  6
Continuous
 62
     7
370
    15
100
AcDbCircle
 10
1265.9542435595
 20
837.5010760987
 30
0.0
 40
5.000012352338341
100
AcDbArc
 50
180.096646447
 51
270.3139424554
  0
ARC
  5
1DE
330
1F
100
AcDbEntity
  8
0
  6
Continuous
 62
     7
370
    15
100
AcDbCircle
 10
1260.9542435595
 20
1732.487097132
 30
0.0
 40
900.0000000000005
100
AcDbArc
 50
270.3200940856
 51
359.6798983236
  0
ARC
  5
1DF
330
1F
100
AcDbEntity
  8
0
  6
Continuous
 62
     7
370
    15
100
AcDbCircle
 10
365.9682225262
 20
1727.487097132
 30
0.0
 40
5.000012352338396
100
AcDbArc
 50
90.0966462076
 51
180.3388523915
  0
ARC
  5
1E0
330
1F
100
AcDbEntity
  8
0
  6
Continuous
 62
     7
370
    15
100
AcDbCircle
 10
1255.9542435595
 20
837.5010761263
 30
0.0
 40
5.000012379839385
100
AcDbArc
 50
269.669680764
 51
359.9058162156
  0
ARC
  5
1E1
330
1F
100
AcDbEntity
  8
0
  6
Continuous
 62
     7
370
    15
100
AcDbCircle
 10
1260.9542435595
 20
1732.487097132
 30
0.0
 40
900.0000000000002
100
AcDbArc
 50
180.3200936219
 51
269.6799156935
  0
LINE
  5
1E2
330
1F
100
AcDbEntity
  8
0
  6
Continuous
 62
     7
370
    15
100
AcDbLine
 10
1710.8691660726
 20
1723.737097132
 30
0.0
 11
811.0393210463
 21
1723.737097132
 31
0.0
  0
LINE
  5
1E3
330
1F
100
AcDbEntity
  8
0
  6
Continuous
 62
     7
370
    15
100
AcDbLine
 10
1715.9267702026
 20
1732.487097132
 30
0.0
 11
2106.9457741921
 21
1732.487097132
 31
0.0
  0
ARC
  5
1E4
330
1F
100
AcDbEntity
  8
0
  6
Continuous
 62
     7
370
    15
100
AcDbCircle
 10
1715.9267702026
 20
1727.487097132
 30
0.0
 40
5.000000000000021
100
AcDbArc
 50
90.0
 51
179.3703633766
  0
ARC
  5
1E5
330
1F
100
AcDbEntity
  8
0
  6
Continuous
 62
     7
370
    15
100
AcDbCircle
 10
1260.9542435595
 20
1732.487097132
 30
0.0
 40
450.0000000000006
100
AcDbArc
 50
270.6296366234
 51
359.3703633766
  0
LINE
  5
1E6
330
1F
100
AcDbEntity
  8
0
  6
Continuous
 62
     7
370
    15
100
AcDbLine
 10
1260.9542435595
 20
886.4955664994
 30
0.0
 11
1260.9542435595
 21
1277.5145704889
 31
0.0
  0
ARC
  5
1E7
330
1F
100
AcDbEntity
  8
0
  6
Continuous
 62
     7
370
    15
100
AcDbCircle
 10
1265.9542435595
 20
1277.5145704889
 30
0.0
 40
5.000000000000024
100
AcDbArc
 50
90.6296366234
 51
180.0
  0
SPLINE
  5
1E8
330
1F
100
AcDbEntity
  8
0
  6
Continuous
 62
     7
370
    15
100
AcDbSpline
210
0.0
220
0.0
230
1.0
 70
    24
 71
     3
 72
    28
 73
    24
 74
     0
 42
0.000000001
 43
0.00000001
 40
0.0
 40
0.0
 40
0.0
 40
0.0
 40
0.0374155537254272
 40
0.0748311074510745
 40
0.1122569683771458
 40
0.1496828293034137
 40
0.1997305832589465
 40
0.2497798784118048
 40
0.299827632369176
 40
0.3499309708401325
 40
0.4000358556473089
 40
0.4501391941196793
 40
0.500569243454322
 40
0.5510008695732264
 40
0.6014309189089263
 40
0.6519178378542608
 40
0.7024063389233689
 40
0.7528932578694058
 40
0.803710466355996
 40
0.8545292882227072
 40
0.9053464967096728
 40
0.956221896394519
 40
1.0
 40
1.0
 40
1.0
 40
1.0
 10
2106.945774192054
 20
1732.487097131983
 30
0.0
 10
2108.149331602186
 20
1732.487097131983
 30
0.0
 10
2110.556446422456
 20
1732.487097131983
 30
0.0
 10
2113.996997347937
 20
1732.487097131983
 30
0.0
 10
2117.312731284536
 20
1732.487097131983
 30
0.0
 10
2120.848517995859
 20
1732.487097131983
 30
0.0
 10
2124.548917207876
 20
1732.487097131983
 30
0.0
 10
2128.346335008026
 20
1732.487097131983
 30
0.0
 10
2131.902369589138
 20
1732.487097131983
 30
0.0
 10
2135.216081742479
 20
1732.487097131983
 30
0.0
 10
2138.28685980518
 20
1732.487097131983
 30
0.0
 10
2141.119235024381
 20
1732.487097131983
 30
0.0
 10
2143.71090655864
 20
1732.487097131983
 30
0.0
 10
2146.059765259522
 20
1732.487097131983
 30
0.0
 10
2148.160695498479
 20
1732.487097131983
 30
0.0
 10
2150.013028983557
 20
1732.487097131983
 30
0.0
 10
2151.616251523478
 20
1732.487097131983
 30
0.0
 10
2152.972581080599
 20
1732.487097131983
 30
0.0
 10
2154.079231787945
 20
1732.487097131983
 30
0.0
 10
2154.936528395872
 20
1732.487097131983
 30
0.0
 10
2155.53362347756
 20
1732.487097131983
 30
0.0
 10
2155.884861600617
 20
1732.487097131983
 30
0.0
 10
2155.912289297587
 20
1732.487097131983
 30
0.0
 10
2155.924974856155
 20
1732.487097131983
 30
0.0
  0
LINE
  5
1E9
330
1F
100
AcDbEntity
  8
0
  6
Continuous
 62
     7
370
    15
100
AcDbLine
 10
2160.9223409393
 20
1727.4591638641
 30
0.0
 11
2160.9221011376
 21
1727.45916386
 31
0.0
  0
LINE
  5
1EA
330
1F
100
AcDbEntity
  8
0
  6
Continuous
 62
     7
370
    15
100
AcDbLine
 10
1265.982176757
 20
832.5149076393
 30
0.0
 11
1265.9821767469
 21
832.5143199977
 31
0.0
  0
SPLINE
  5
1EB
330
1F
100
AcDbEntity
  8
0
  6
Continuous
 62
     7
370
    15
100
AcDbSpline
210
0.0
220
0.0
230
1.0
 70
    24
 71
     3
 72
    24
 73
    20
 74
     0
 42
0.000000001
 43
0.00000001
 40
0.0
 40
0.0
 40
0.0
 40
0.0
 40
0.0568268998421891
 40
0.1164908797512764
 40
0.1761600825724498
 40
0.2358292853924665
 40
0.2954932652999759
 40
0.3543617230899509
 40
0.4132351976228117
 40
0.4721086721530158
 40
0.5309771299393673
 40
0.5900068598307086
 40
0.6490416478219534
 40
0.7080764358087142
 40
0.7671061656939401
 40
0.8253271977580439
 40
0.883553082854432
 40
0.9417789679445063
 40
1.0
 40
1.0
 40
1.0
 40
1.0
 10
1260.954243559474
 20
837.5295056224408
 30
0.0
 10
1260.954243559474
 20
837.5491270522606
 30
0.0
 10
1260.954243559474
 20
837.5893495107797
 30
0.0
 10
1260.954243559474
 20
838.1217887798867
 30
0.0
 10
1260.954243559474
 20
838.9748814850515
 30
0.0
 10
1260.954243559474
 20
840.1876345442755
 30
0.0
 10
1260.954243559474
 20
841.7401212027686
 30
0.0
 10
1260.954243559474
 20
843.6303707474051
 30
0.0
 10
1260.954243559474
 20
845.851582140713
 30
0.0
 10
1260.954243559474
 20
848.4119693723144
 30
0.0
 10
1260.954243559474
 20
851.3136713553702
 30
0.0
 10
1260.954243559474
 20
854.5576023736193
 30
0.0
 10
1260.954243559474
 20
858.1441817497562
 30
0.0
 10
1260.954243559474
 20
862.0695180845937
 30
0.0
 10
1260.954243559474
 20
866.3140015366475
 30
0.0
 10
1260.954243559474
 20
870.8697277766603
 30
0.0
 10
1260.954243559474
 20
875.7384463306526
 30
0.0
 10
1260.954243559474
 20
880.9105429722347
 30
0.0
 10
1260.954243559474
 20
884.6339437157523
 30
0.0
 10
1260.954243559474
 20
886.4955664994006
 30
0.0
  0
ARC
  5
1EC
330
1F
100
AcDbEntity
  8
0
  6
Continuous
 62
     7
370
    15
100
AcDbCircle
 10
805.9817169164
 20
1727.487097132
 30
0.0
 40
5.0
100
AcDbArc
 50
0.6296366234
 51
90.0
  0
LINE
  5
1ED
330
1F
100
AcDbEntity
  8
0
  6
Continuous
 62
     7
370
    15
100
AcDbLine
 10
414.9627129269
 20
1732.487097132
 30
0.0
 11
805.9817169164
 21
1732.487097132
 31
0.0
  0
ARC
  5
1EE
330
1F
100
AcDbEntity
  8
0
  6
Continuous
 62
     7
370
    15
100
AcDbCircle
 10
1260.9542435595
 20
1732.487097132
 30
0.0
 40
450.0000000000006
100
AcDbArc
 50
180.6296366234
 51
269.3703633766
  0
ARC
  5
1EF
330
1F
100
AcDbEntity
  8
0
  6
Continuous
 62
     7
370
    15
100
AcDbCircle
 10
1255.9542435595
 20
1277.5145704889
 30
0.0
 40
5.000000000000021
100
AcDbArc
 50
0.0
 51
89.3703633766
  0
LINE
  5
1F0
330
1F
100
AcDbEntity
  8
0
  6
Continuous
 62
     7
370
    15
100
AcDbLine
 10
360.9820540668
 20
1727.4591639345
 30
0.0
 11
360.9814665044
 21
1727.4591639446
 31
0.0
  0
SPLINE
  5
1F1
330
1F
100
AcDbEntity
  8
0
  6
Continuous
 62
     7
370
    15
100
AcDbSpline
210
0.0
220
0.0
230
1.0
 70
    24
 71
     3
 72
    24
 73
    20
 74
     0
 42
0.000000001
 43
0.00000001
 40
0.0
 40
0.0
 40
0.0
 40
0.0
 40
0.0568268998421966
 40
0.1164908797512834
 40
0.1761600825724564
 40
0.2358292853924726
 40
0.2954932652999815
 40
0.3543617230899561
 40
0.4132351976228164
 40
0.47210867215302
 40
0.530977129939371
 40
0.5900068598307118
 40
0.6490416478219562
 40
0.7080764358087164
 40
0.767106165693942
 40
0.8253271977580453
 40
0.8835530828544329
 40
0.9417789679445068
 40
0.9999999999999999
 40
0.9999999999999999
 40
0.9999999999999999
 40
0.9999999999999999
 10
365.9966520499343
 20
1732.487097131983
 30
0.0
 10
366.0162734797537
 20
1732.487097131983
 30
0.0
 10
366.056495938273
 20
1732.487097131983
 30
0.0
 10
366.5889352073804
 20
1732.487097131983
 30
0.0
 10
367.4420279125441
 20
1732.487097131983
 30
0.0
 10
368.6547809717687
 20
1732.487097131983
 30
0.0
 10
370.2072676302624
 20
1732.487097131983
 30
0.0
 10
372.097517174898
 20
1732.487097131983
 30
0.0
 10
374.318728568207
 20
1732.487097131983
 30
0.0
 10
376.8791157998075
 20
1732.487097131983
 30
0.0
 10
379.7808177828641
 20
1732.487097131983
 30
0.0
 10
383.0247488011124
 20
1732.487097131983
 30
0.0
 10
386.6113281772497
 20
1732.487097131983
 30
0.0
 10
390.5366645120871
 20
1732.487097131983
 30
0.0
 10
394.7811479641411
 20
1732.487097131983
 30
0.0
 10
399.3368742041535
 20
1732.487097131983
 30
0.0
 10
404.2055927581458
 20
1732.487097131983
 30
0.0
 10
409.3776893997281
 20
1732.487097131983
 30
0.0
 10
413.1010901432458
 20
1732.487097131983
 30
0.0
 10
414.962712926894
 20
1732.487097131983
 30
0.0
  0
SPLINE
  5
1F2
330
1F
100
AcDbEntity
  8
0
  6
Continuous
 62
     7
370
    15
100
AcDbSpline
210
0.0
220
0.0
230
1.0
 70
    24
 71
     3
 72
    28
 73
    24
 74
     0
 42
0.000000001
 43
0.00000001
 40
0.0
 40
0.0
 40
0.0
 40
0.0
 40
0.0374155537254279
 40
0.0748311074510758
 40
0.1122569683771477
 40
0.1496828293034163
 40
0.1997305832589499
 40
0.2497798784118091
 40
0.2998276323691812
 40
0.3499309708401385
 40
0.4000358556473157
 40
0.450139194119687
 40
0.5005692434543305
 40
0.5510008695732358
 40
0.6014309189089366
 40
0.651917837854272
 40
0.7024063389233809
 40
0.7528932578694186
 40
0.8037104663560097
 40
0.8545292882227218
 40
0.9053464967096884
 40
0.9562218963945355
 40
0.9999999999999999
 40
0.9999999999999999
 40
0.9999999999999999
 40
0.9999999999999999
 10
1260.954243559474
 20
886.4955664994004
 30
0.0
 10
1260.954243559474
 20
885.2920090892688
 30
0.0
 10
1260.954243559474
 20
882.8848942689984
 30
0.0
 10
1260.954243559474
 20
879.4443433435167
 30
0.0
 10
1260.954243559474
 20
876.1286094069179
 30
0.0
 10
1260.954243559474
 20
872.5928226955953
 30
0.0
 10
1260.954243559474
 20
868.8924234835788
 30
0.0
 10
1260.954243559474
 20
865.0950056834283
 30
0.0
 10
1260.954243559474
 20
861.5389711023157
 30
0.0
 10
1260.954243559474
 20
858.2252589489747
 30
0.0
 10
1260.954243559474
 20
855.1544808862737
 30
0.0
 10
1260.954243559474
 20
852.3221056670732
 30
0.0
 10
1260.954243559474
 20
849.7304341328138
 30
0.0
 10
1260.954243559474
 20
847.3815754319314
 30
0.0
 10
1260.954243559474
 20
845.2806451929748
 30
0.0
 10
1260.954243559474
 20
843.4283117078973
 30
0.0
 10
1260.954243559474
 20
841.8250891679761
 30
0.0
 10
1260.954243559474
 20
840.4687596108549
 30
0.0
 10
1260.954243559474
 20
839.362108903509
 30
0.0
 10
1260.954243559474
 20
838.5048122955822
 30
0.0
 10
1260.954243559474
 20
837.9077172138942
 30
0.0
 10
1260.954243559474
 20
837.5564790908377
 30
0.0
 10
1260.954243559474
 20
837.529051393867
 30
0.0
 10
1260.954243559474
 20
837.5163658352991
 30
0.0
  0
LINE
  5
1F3
330
1F
100
AcDbEntity
  8
0
  6
Continuous
 62
     7
370
    15
100
AcDbLine
 10
1255.9263102916
 20
832.518999728
 30
0.0
 11
1255.9263102875
 21
832.5192395538
 31
0.0
  0
ENDSEC
  0
SECTION
  2
OBJECTS
  0
DICTIONARY
  5
C
330
0
100
AcDbDictionary
281
     1
  3
ACAD_DETAILVIEWSTYLE
350
1FB
  3
ACAD_GROUP
350
D
  3
ACAD_LAYOUT
350
1A
  3
ACAD_MATERIAL
350
43
  3
ACAD_MLEADERSTYLE
350
6B
  3
ACAD_MLINESTYLE
350
17
  3
ACAD_PLOTSETTINGS
350
19
  3
ACAD_PLOTSTYLENAME
350
E
  3
ACAD_SCALELIST
350
47
  3
ACAD_SECTIONVIEWSTYLE
350
1FC
  3
ACAD_TABLESTYLE
350
69
  3
ACAD_VISUALSTYLE
350
2A
  3
ACDB_RECOMPOSE_DATA
350
1F8
  3
AcDbVariableDictionary
350
1F4
  0
SUN
  5
6D
330
29
100
AcDbSun
 90
        1
290
     0
 63
     7
421
 16777215
 40
1.0
291
     1
 91
  2455826
 92
 54000000
292
     0
 70
     2
 71
   256
280
     1
  0
DICTIONARY
  5
1FB
102
{ACAD_REACTORS
330
C
102
}
330
C
100
AcDbDictionary
281
     1
  0
DICTIONARY
  5
D
102
{ACAD_REACTORS
330
C
102
}
330
C
100
AcDbDictionary
281
     1
  0
DICTIONARY
  5
1A
102
{ACAD_REACTORS
330
C
102
}
330
C
100
AcDbDictionary
281
     1
  3
Layout1
350
1E
  3
Layout2
350
26
  3
Model
350
22
  0
DICTIONARY
  5
43
102
{ACAD_REACTORS
330
C
102
}
330
C
100
AcDbDictionary
281
     1
  3
ByBlock
350
45
  3
ByLayer
350
44
  3
Global
350
46
  0
DICTIONARY
  5
6B
102
{ACAD_REACTORS
330
C
102
}
330
C
100
AcDbDictionary
281
     1
  3
Standard
350
6C
  0
DICTIONARY
  5
17
102
{ACAD_REACTORS
330
C
102
}
330
C
100
AcDbDictionary
281
     1
  3
Standard
350
18
  0
DICTIONARY
  5
19
102
{ACAD_REACTORS
330
C
102
}
330
C
100
AcDbDictionary
281
     1
  0
ACDBDICTIONARYWDFLT
  5
E
102
{ACAD_REACTORS
330
C
102
}
330
C
100
AcDbDictionary
281
     1
  3
Normal
350
F
100
AcDbDictionaryWithDefault
340
F
  0
DICTIONARY
  5
47
102
{ACAD_REACTORS
330
C
102
}
330
C
100
AcDbDictionary
281
     1
  3
A0
350
48
  3
A1
350
49
  3
A2
350
4A
  3
A3
350
4B
  3
A4
350
4C
  3
A5
350
4D
  3
A6
350
4E
  3
A7
350
4F
  3
A8
350
50
  3
A9
350
51
  3
B0
350
52
  3
B1
350
53
  3
B2
350
54
  3
B3
350
55
  3
B4
350
56
  3
B5
350
57
  3
B6
350
58
  3
B7
350
59
  3
B8
350
5A
  3
B9
350
5B
  3
C0
350
5C
  3
C1
350
5D
  3
C2
350
5E
  3
C3
350
5F
  3
C4
350
60
  3
C5
350
61
  3
C6
350
62
  3
C7
350
63
  3
C8
350
64
  3
C9
350
65
  3
D0
350
66
  3
D1
350
67
  3
D2
350
68
  0
DICTIONARY
  5
1FC
102
{ACAD_REACTORS
330
C
102
}
330
C
100
AcDbDictionary
281
     1
  0
DICTIONARY
  5
69
102
{ACAD_REACTORS
330
C
102
}
330
C
100
AcDbDictionary
281
     1
  3
Standard
350
6A
  0
DICTIONARY
  5
2A
102
{ACAD_REACTORS
330
C
102
}
330
C
100
AcDbDictionary
281
     1
  3
2dWireframe
350
2F
  3
Basic
350
32
  3
Brighten
350
36
  3
ColorChange
350
3A
  3
Conceptual
350
34
  3
Dim
350
35
  3
EdgeColorOff
350
3D
  3
Facepattern
350
39
  3
Flat
350
2B
  3
FlatWithEdges
350
2C
  3
Gouraud
350
2D
  3
GouraudWithEdges
350
2E
  3
Hidden
350
31
  3
JitterOff
350
3B
  3
Linepattern
350
38
  3
OverhangOff
350
3C
  3
Realistic
350
33
  3
Shaded
350
42
  3
Shaded with edges
350
41
  3
Shades of Gray
350
3E
  3
Sketchy
350
3F
  3
Thicken
350
37
  3
Wireframe
350
30
  3
X-Ray
350
40
  0
XRECORD
  5
1F8
102
{ACAD_REACTORS
330
C
102
}
330
C
100
AcDbXrecord
280
     1
 90
        1
330
6A
  0
DICTIONARY
  5
1F4
102
{ACAD_REACTORS
330
C
102
}
330
C
100
AcDbDictionary
281
     1
  3
CANNOSCALE
350
1F5
  3
CMLEADERSTYLE
350
1FA
  3
CTABLESTYLE
350
1F9
  0
LAYOUT
  5
1E
102
{ACAD_REACTORS
330
1A
102
}
330
1A
100
AcDbPlotSettings
  1

  2
none_device
  4

  6

 40
0.0
 41
0.0
 42
0.0
 43
0.0
 44
0.0
 45
0.0
 46
0.0
 47
0.0
 48
0.0
 49
0.0
140
0.0
141
0.0
142
1.0
143
1.0
 70
   688
 72
     1
 73
     0
 74
     5
  7

 75
    16
 76
     0
 77
     2
 78
   300
147
1.0
148
0.0
149
0.0
100
AcDbLayout
  1
Layout1
 70
     1
 71
     1
 10
0.0
 20
0.0
 11
420.0
 21
297.0
 12
0.0
 22
0.0
 32
0.0
 14
1.0000000000E+20
 24
1.0000000000E+20
 34
1.0000000000E+20
 15
-1.0000000000E+20
 25
-1.0000000000E+20
 35
-1.0000000000E+20
146
0.0
 13
0.0
 23
0.0
 33
0.0
 16
1.0
 26
0.0
 36
0.0
 17
0.0
 27
1.0
 37
0.0
 76
     0
330
1B
  0
LAYOUT
  5
26
102
{ACAD_REACTORS
330
1A
102
}
330
1A
100
AcDbPlotSettings
  1

  2
none_device
  4

  6

 40
0.0
 41
0.0
 42
0.0
 43
0.0
 44
0.0
 45
0.0
 46
0.0
 47
0.0
 48
0.0
 49
0.0
140
0.0
141
0.0
142
1.0
143
1.0
 70
   688
 72
     1
 73
     0
 74
     5
  7

 75
    16
 76
     0
 77
     2
 78
   300
147
1.0
148
0.0
149
0.0
100
AcDbLayout
  1
Layout2
 70
     1
 71
     2
 10
0.0
 20
0.0
 11
0.0
 21
0.0
 12
0.0
 22
0.0
 32
0.0
 14
0.0
 24
0.0
 34
0.0
 15
0.0
 25
0.0
 35
0.0
146
0.0
 13
0.0
 23
0.0
 33
0.0
 16
1.0
 26
0.0
 36
0.0
 17
0.0
 27
1.0
 37
0.0
 76
     0
330
23
  0
LAYOUT
  5
22
102
{ACAD_REACTORS
330
1A
102
}
330
1A
100
AcDbPlotSettings
  1

  2
none_device
  4
Letter_(8.50_x_11.00_Inches)
  6

 40
6.35
 41
6.35
 42
6.35000508
 43
6.35000508
 44
215.9
 45
279.4
 46
0.0
 47
0.0
 48
0.0
 49
0.0
140
0.0
141
0.0
142
1.0
143
1.0
 70
  1712
 72
     1
 73
     0
 74
     0
  7

 75
     0
 76
     0
 77
     2
 78
   300
147
1.0
148
0.0
149
0.0
100
AcDbLayout
  1
Model
 70
     1
 71
     0
 10
0.0
 20
0.0
 11
5940.0
 21
4200.0
 12
0.0
 22
0.0
 32
0.0
 14
0.0
 24
0.0
 34
0.0
 15
5940.0
 25
4200.0
 35
0.0
146
0.0
 13
0.0
 23
0.0
 33
0.0
 16
1.0
 26
0.0
 36
0.0
 17
0.0
 27
1.0
 37
0.0
 76
     0
330
1F
331
29
  0
MATERIAL
  5
45
102
{ACAD_REACTORS
330
43
102
}
330
43
100
AcDbMaterial
  1
ByBlock
 72
     1
 94
      127
  0
MATERIAL
  5
44
102
{ACAD_REACTORS
330
43
102
}
330
43
100
AcDbMaterial
  1
ByLayer
 72
     1
 94
      127
  0
MATERIAL
  5
46
102
{ACAD_REACTORS
330
43
102
}
330
43
100
AcDbMaterial
  1
Global
 72
     1
 94
      127
  0
MLEADERSTYLE
  5
6C
102
{ACAD_REACTORS
330
6B
102
}
330
6B
100
AcDbMLeaderStyle
179
     2
170
     2
171
     1
172
     0
 90
        2
 40
0.0
 41
0.0
173
     1
 91
-1056964608
340
14
 92
       -2
290
     1
 42
2.0
291
     1
 43
8.0
  3
Standard
341
0
 44
4.0
300

342
11
174
     1
178
     6
175
     1
176
     0
 93
-1056964608
 45
4.0
292
     0
297
     0
 46
4.0
343
0
 94
-1056964608
 47
1.0
 49
1.0
140
1.0
293
     1
141
0.0
294
     1
177
     0
142
1.0
295
     0
296
     0
143
3.75
271
     0
272
     9
273
     9
298
     0
  0
MLINESTYLE
  5
18
102
{ACAD_REACTORS
330
17
102
}
330
17
100
AcDbMlineStyle
  2
Standard
 70
     0
  3

 62
   256
 51
90.0
 52
90.0
 71
     2
 49
0.5
 62
   256
  6
BYLAYER
 49
-0.5
 62
   256
  6
BYLAYER
  0
ACDBPLACEHOLDER
  5
F
102
{ACAD_REACTORS
330
E
102
}
330
E
  0
SCALE
  5
48
102
{ACAD_REACTORS
330
47
102
}
330
47
100
AcDbScale
 70
     0
300
1:1
140
1.0
141
1.0
290
     1
  0
SCALE
  5
49
102
{ACAD_REACTORS
330
47
102
}
330
47
100
AcDbScale
 70
     0
300
1:2
140
1.0
141
2.0
290
     0
  0
SCALE
  5
4A
102
{ACAD_REACTORS
330
47
102
}
330
47
100
AcDbScale
 70
     0
300
1:4
140
1.0
141
4.0
290
     0
  0
SCALE
  5
4B
102
{ACAD_REACTORS
330
47
102
}
330
47
100
AcDbScale
 70
     0
300
1:5
140
1.0
141
5.0
290
     0
  0
SCALE
  5
4C
102
{ACAD_REACTORS
330
47
102
}
330
47
100
AcDbScale
 70
     0
300
1:8
140
1.0
141
8.0
290
     0
  0
SCALE
  5
4D
102
{ACAD_REACTORS
330
47
102
}
330
47
100
AcDbScale
 70
     0
300
1:10
140
1.0
141
10.0
290
     0
  0
SCALE
  5
4E
102
{ACAD_REACTORS
330
47
102
}
330
47
100
AcDbScale
 70
     0
300
1:16
140
1.0
141
16.0
290
     0
  0
SCALE
  5
4F
102
{ACAD_REACTORS
330
47
102
}
330
47
100
AcDbScale
 70
     0
300
1:20
140
1.0
141
20.0
290
     0
  0
SCALE
  5
50
102
{ACAD_REACTORS
330
47
102
}
330
47
100
AcDbScale
 70
     0
300
1:30
140
1.0
141
30.0
290
     0
  0
SCALE
  5
51
102
{ACAD_REACTORS
330
47
102
}
330
47
100
AcDbScale
 70
     0
300
1:40
140
1.0
141
40.0
290
     0
  0
SCALE
  5
52
102
{ACAD_REACTORS
330
47
102
}
330
47
100
AcDbScale
 70
     0
300
1:50
140
1.0
141
50.0
290
     0
  0
SCALE
  5
53
102
{ACAD_REACTORS
330
47
102
}
330
47
100
AcDbScale
 70
     0
300
1:100
140
1.0
141
100.0
290
     0
  0
SCALE
  5
54
102
{ACAD_REACTORS
330
47
102
}
330
47
100
AcDbScale
 70
     0
300
2:1
140
2.0
141
1.0
290
     0
  0
SCALE
  5
55
102
{ACAD_REACTORS
330
47
102
}
330
47
100
AcDbScale
 70
     0
300
4:1
140
4.0
141
1.0
290
     0
  0
SCALE
  5
56
102
{ACAD_REACTORS
330
47
102
}
330
47
100
AcDbScale
 70
     0
300
8:1
140
8.0
141
1.0
290
     0
  0
SCALE
  5
57
102
{ACAD_REACTORS
330
47
102
}
330
47
100
AcDbScale
 70
     0
300
10:1
140
10.0
141
1.0
290
     0
  0
SCALE
  5
58
102
{ACAD_REACTORS
330
47
102
}
330
47
100
AcDbScale
 70
     0
300
100:1
140
100.0
141
1.0
290
     0
  0
SCALE
  5
59
102
{ACAD_REACTORS
330
47
102
}
330
47
100
AcDbScale
 70
     0
300
1/128" = 1'-0"
140
0.0078125
141
12.0
290
     0
  0
SCALE
  5
5A
102
{ACAD_REACTORS
330
47
102
}
330
47
100
AcDbScale
 70
     0
300
1/64" = 1'-0"
140
0.015625
141
12.0
290
     0
  0
SCALE
  5
5B
102
{ACAD_REACTORS
330
47
102
}
330
47
100
AcDbScale
 70
     0
300
1/32" = 1'-0"
140
0.03125
141
12.0
290
     0
  0
SCALE
  5
5C
102
{ACAD_REACTORS
330
47
102
}
330
47
100
AcDbScale
 70
     0
300
1/16" = 1'-0"
140
0.0625
141
12.0
290
     0
  0
SCALE
  5
5D
102
{ACAD_REACTORS
330
47
102
}
330
47
100
AcDbScale
 70
     0
300
3/32" = 1'-0"
140
0.09375
141
12.0
290
     0
  0
SCALE
  5
5E
102
{ACAD_REACTORS
330
47
102
}
330
47
100
AcDbScale
 70
     0
300
1/8" = 1'-0"
140
0.125
141
12.0
290
     0
  0
SCALE
  5
5F
102
{ACAD_REACTORS
330
47
102
}
330
47
100
AcDbScale
 70
     0
300
3/16" = 1'-0"
140
0.1875
141
12.0
290
     0
  0
SCALE
  5
60
102
{ACAD_REACTORS
330
47
102
}
330
47
100
AcDbScale
 70
     0
300
1/4" = 1'-0"
140
0.25
141
12.0
290
     0
  0
SCALE
  5
61
102
{ACAD_REACTORS
330
47
102
}
330
47
100
AcDbScale
 70
     0
300
3/8" = 1'-0"
140
0.375
141
12.0
290
     0
  0
SCALE
  5
62
102
{ACAD_REACTORS
330
47
102
}
330
47
100
AcDbScale
 70
     0
300
1/2" = 1'-0"
140
0.5
141
12.0
290
     0
  0
SCALE
  5
63
102
{ACAD_REACTORS
330
47
102
}
330
47
100
AcDbScale
 70
     0
300
3/4" = 1'-0"
140
0.75
141
12.0
290
     0
  0
SCALE
  5
64
102
{ACAD_REACTORS
330
47
102
}
330
47
100
AcDbScale
 70
     0
300
1" = 1'-0"
140
1.0
141
12.0
290
     0
  0
SCALE
  5
65
102
{ACAD_REACTORS
330
47
102
}
330
47
100
AcDbScale
 70
     0
300
1-1/2" = 1'-0"
140
1.5
141
12.0
290
     0
  0
SCALE
  5
66
102
{ACAD_REACTORS
330
47
102
}
330
47
100
AcDbScale
 70
     0
300
3" = 1'-0"
140
3.0
141
12.0
290
     0
  0
SCALE
  5
67
102
{ACAD_REACTORS
330
47
102
}
330
47
100
AcDbScale
 70
     0
300
6" = 1'-0"
140
6.0
141
12.0
290
     0
  0
SCALE
  5
68
102
{ACAD_REACTORS
330
47
102
}
330
47
100
AcDbScale
 70
     0
300
1'-0" = 1'-0"
140
12.0
141
12.0
290
     0
  0
TABLESTYLE
  5
6A
102
{ACAD_REACTORS
330
69
102
}
102
{ACAD_XDICTIONARY
360
1F6
102
}
330
69
100
AcDbTableStyle
  3
Standard
 70
     0
 71
     0
 40
0.06
 41
0.06
280
     0
281
     0
  7
Standard
140
4.5
170
     2
 62
     0
 63
   257
283
     0
 90
        4
 91
        0
  1

274
    -2
284
     1
 64
     0
275
    -2
285
     1
 65
     0
276
    -2
286
     1
 66
     0
277
    -2
287
     1
 67
     0
278
    -2
288
     1
 68
     0
279
    -2
289
     1
 69
     0
  7
Standard
140
6.0
170
     5
 62
     0
 63
   257
283
     0
 90
        4
 91
        0
  1

274
    -2
284
     1
 64
     0
275
    -2
285
     1
 65
     0
276
    -2
286
     1
 66
     0
277
    -2
287
     1
 67
     0
278
    -2
288
     1
 68
     0
279
    -2
289
     1
 69
     0
  7
Standard
140
4.5
170
     5
 62
     0
 63
   257
283
     0
 90
        4
 91
        0
  1

274
    -2
284
     1
 64
     0
275
    -2
285
     1
 65
     0
276
    -2
286
     1
 66
     0
277
    -2
287
     1
 67
     0
278
    -2
288
     1
 68
     0
279
    -2
289
     1
 69
     0
  0
VISUALSTYLE
  5
2F
102
{ACAD_REACTORS
330
2A
102
}
330
2A
100
AcDbVisualStyle
  2
2dWireframe
 70
     4
177
     3
291
     0
 70
    58
 90
        0
176
     1
 90
        2
176
     1
 90
        0
176
     1
 90
        0
176
     1
 40
0.6
176
     1
 40
30.0
176
     1
 62
     7
420
 16777215
176
     1
 90
        1
176
     1
 90
        4
176
     1
 62
     7
176
     1
 62
   257
176
     1
 90
        1
176
     1
 90
        1
176
     1
 40
1.0
176
     1
 90
        0
176
     1
 62
   257
176
     1
 40
1.0
176
     1
 90
        1
176
     1
 90
        6
176
     1
 90
        2
176
     1
 62
     7
176
     1
 90
        5
176
     1
 90
        0
176
     1
 90
        0
176
     1
290
     0
176
     1
 90
        1
176
     1
 40
0.0
176
     1
 90
        0
176
     1
290
     1
176
     1
290
     1
176
     1
290
     0
176
     1
290
     0
176
     1
290
     0
176
     1
290
     0
176
     1
290
     0
176
     1
290
     0
176
     1
290
     0
176
     1
 90
       50
176
     1
 40
0.0
176
     1
 40
1.0
176
     1
 90
        0
176
     1
 62
    18
420
        0
176
     1
 90
       50
176
     1
 90
        3
176
     1
 62
     5
420
      255
176
     1
290
     0
176
     1
 90
       50
176
     1
 90
       50
176
     1
 90
       50
176
     1
290
     0
176
     1
 90
       50
176
     1
 62
   256
176
     0
 40
1.0
176
     0
 90
        2
176
     1
  1
strokes_ogs.tif
176
     1
290
     0
176
     1
 40
1.0
176
     1
 40
1.0
176
     1
  0
VISUALSTYLE
  5
32
102
{ACAD_REACTORS
330
2A
102
}
330
2A
100
AcDbVisualStyle
  2
Basic
 70
     7
177
     3
291
     1
 70
    58
 90
        1
176
     1
 90
        0
176
     1
 90
        1
176
     1
 90
        0
176
     1
 40
0.6
176
     1
 40
30.0
176
     1
 62
     7
420
 16777215
176
     1
 90
        0
176
     1
 90
        4
176
     1
 62
     7
176
     1
 62
   257
176
     1
 90
        1
176
     1
 90
        1
176
     1
 40
1.0
176
     1
 90
        8
176
     1
 62
     7
176
     1
 40
1.0
176
     1
 90
        1
176
     1
 90
        6
176
     1
 90
        2
176
     1
 62
     7
176
     1
 90
        5
176
     1
 90
        0
176
     1
 90
        0
176
     1
290
     0
176
     1
 90
        1
176
     1
 40
0.0
176
     1
 90
        0
176
     1
290
     0
176
     1
290
     1
176
     1
290
     1
176
     1
290
     0
176
     1
290
     0
176
     1
290
     0
176
     1
290
     0
176
     1
290
     0
176
     1
290
     0
176
     1
 90
       50
176
     1
 40
0.0
176
     1
 40
1.0
176
     1
 90
        0
176
     1
 62
    18
420
        0
176
     1
 90
       50
176
     1
 90
        3
176
     1
 62
     5
420
      255
176
     1
290
     0
176
     1
 90
       50
176
     1
 90
       50
176
     1
 90
       50
176
     1
290
     0
176
     1
 90
       50
176
     1
 62
   256
176
     0
 40
1.0
176
     0
 90
        2
176
     1
  1
strokes_ogs.tif
176
     1
290
     0
176
     1
 40
1.0
176
     1
 40
1.0
176
     1
  0
VISUALSTYLE
  5
36
102
{ACAD_REACTORS
330
2A
102
}
330
2A
100
AcDbVisualStyle
  2
Brighten
 70
    12
177
     3
291
     1
 70
    58
 90
        2
176
     1
 90
        2
176
     1
 90
        0
176
     1
 90
        0
176
     1
 40
0.6
176
     1
 40
30.0
176
     1
 62
     7
420
 16777215
176
     1
 90
        1
176
     1
 90
        4
176
     1
 62
     7
176
     1
 62
   257
176
     1
 90
        1
176
     1
 90
        1
176
     1
 40
1.0
176
     1
 90
        8
176
     1
 62
     7
176
     1
 40
1.0
176
     1
 90
        1
176
     1
 90
        6
176
     1
 90
        2
176
     1
 62
     7
176
     1
 90
        5
176
     1
 90
        0
176
     1
 90
        0
176
     1
290
     0
176
     1
 90
        1
176
     1
 40
50.0
176
     1
 90
        0
176
     1
290
     0
176
     1
290
     1
176
     1
290
     1
176
     1
290
     0
176
     1
290
     0
176
     1
290
     0
176
     1
290
     0
176
     1
290
     0
176
     1
290
     0
176
     1
 90
       50
176
     1
 40
0.0
176
     1
 40
1.0
176
     1
 90
        0
176
     1
 62
    18
420
        0
176
     1
 90
       50
176
     1
 90
        3
176
     1
 62
     5
420
      255
176
     1
290
     0
176
     1
 90
       50
176
     1
 90
       50
176
     1
 90
       50
176
     1
290
     0
176
     1
 90
       50
176
     1
 62
   256
176
     0
 40
1.0
176
     0
 90
        2
176
     1
  1
strokes_ogs.tif
176
     1
290
     0
176
     1
 40
1.0
176
     1
 40
1.0
176
     1
  0
VISUALSTYLE
  5
3A
102
{ACAD_REACTORS
330
2A
102
}
330
2A
100
AcDbVisualStyle
  2
ColorChange
 70
    16
177
     3
291
     1
 70
    58
 90
        2
176
     1
 90
        2
176
     1
 90
        3
176
     1
 90
        0
176
     1
 40
0.6
176
     1
 40
30.0
176
     1
 62
     8
420
  8421504
176
     1
 90
        1
176
     1
 90
        4
176
     1
 62
     7
176
     1
 62
   257
176
     1
 90
        1
176
     1
 90
        1
176
     1
 40
1.0
176
     1
 90
        8
176
     1
 62
     8
420
  8421504
176
     1
 40
1.0
176
     1
 90
        1
176
     1
 90
        6
176
     1
 90
        2
176
     1
 62
     7
176
     1
 90
        5
176
     1
 90
        0
176
     1
 90
        0
176
     1
290
     0
176
     1
 90
        1
176
     1
 40
0.0
176
     1
 90
        0
176
     1
290
     0
176
     1
290
     1
176
     1
290
     1
176
     1
290
     0
176
     1
290
     0
176
     1
290
     0
176
     1
290
     0
176
     1
290
     0
176
     1
290
     0
176
     1
 90
       50
176
     1
 40
0.0
176
     1
 40
1.0
176
     1
 90
        0
176
     1
 62
    18
420
        0
176
     1
 90
       50
176
     1
 90
        3
176
     1
 62
     5
420
      255
176
     1
290
     0
176
     1
 90
       50
176
     1
 90
       50
176
     1
 90
       50
176
     1
290
     0
176
     1
 90
       50
176
     1
 62
   256
176
     0
 40
1.0
176
     0
 90
        2
176
     1
  1
strokes_ogs.tif
176
     1
290
     0
176
     1
 40
1.0
176
     1
 40
1.0
176
     1
  0
VISUALSTYLE
  5
34
102
{ACAD_REACTORS
330
2A
102
}
330
2A
100
AcDbVisualStyle
  2
Conceptual
 70
     9
177
     3
291
     0
 70
    58
 90
        3
176
     1
 90
        2
176
     1
 90
        0
176
     1
 90
        0
176
     1
 40
0.6
176
     1
 40
30.0
176
     1
 62
     7
420
 16777215
176
     1
 90
        2
176
     1
 90
        2
176
     1
 62
     7
176
     1
 62
   257
176
     1
 90
        1
176
     1
 90
        1
176
     1
 40
179.0
176
     1
 90
        8
176
     1
 62
     7
176
     1
 40
1.0
176
     1
 90
        1
176
     1
 90
        6
176
     1
 90
        2
176
     1
 62
     7
176
     1
 90
        3
176
     1
 90
        0
176
     1
 90
        0
176
     1
290
     0
176
     1
 90
        1
176
     1
 40
0.0
176
     1
 90
        0
176
     1
290
     0
176
     1
290
     1
176
     1
290
     1
176
     1
290
     0
176
     1
290
     0
176
     1
290
     0
176
     1
290
     0
176
     1
290
     0
176
     1
290
     0
176
     1
 90
       50
176
     1
 40
0.0
176
     1
 40
1.0
176
     1
 90
        0
176
     1
 62
    18
420
        0
176
     1
 90
       50
176
     1
 90
        3
176
     1
 62
     5
420
      255
176
     1
290
     0
176
     1
 90
       50
176
     1
 90
       50
176
     1
 90
       50
176
     1
290
     0
176
     1
 90
       50
176
     1
 62
   256
176
     0
 40
1.0
176
     0
 90
        2
176
     1
  1
strokes_ogs.tif
176
     1
290
     0
176
     1
 40
1.0
176
     1
 40
1.0
176
     1
  0
VISUALSTYLE
  5
35
102
{ACAD_REACTORS
330
2A
102
}
330
2A
100
AcDbVisualStyle
  2
Dim
 70
    11
177
     3
291
     1
 70
    58
 90
        2
176
     1
 90
        2
176
     1
 90
        0
176
     1
 90
        0
176
     1
 40
0.6
176
     1
 40
30.0
176
     1
 62
     7
420
 16777215
176
     1
 90
        1
176
     1
 90
        4
176
     1
 62
     7
176
     1
 62
   257
176
     1
 90
        1
176
     1
 90
        1
176
     1
 40
1.0
176
     1
 90
        8
176
     1
 62
     7
176
     1
 40
1.0
176
     1
 90
        1
176
     1
 90
        6
176
     1
 90
        2
176
     1
 62
     7
176
     1
 90
        5
176
     1
 90
        0
176
     1
 90
        0
176
     1
290
     0
176
     1
 90
        1
176
     1
 40
-50.0
176
     1
 90
        0
176
     1
290
     0
176
     1
290
     1
176
     1
290
     1
176
     1
290
     0
176
     1
290
     0
176
     1
290
     0
176
     1
290
     0
176
     1
290
     0
176
     1
290
     0
176
     1
 90
       50
176
     1
 40
0.0
176
     1
 40
1.0
176
     1
 90
        0
176
     1
 62
    18
420
        0
176
     1
 90
       50
176
     1
 90
        3
176
     1
 62
     5
420
      255
176
     1
290
     0
176
     1
 90
       50
176
     1
 90
       50
176
     1
 90
       50
176
     1
290
     0
176
     1
 90
       50
176
     1
 62
   256
176
     0
 40
1.0
176
     0
 90
        2
176
     1
  1
strokes_ogs.tif
176
     1
290
     0
176
     1
 40
1.0
176
     1
 40
1.0
176
     1
  0
VISUALSTYLE
  5
3D
102
{ACAD_REACTORS
330
2A
102
}
330
2A
100
AcDbVisualStyle
  2
EdgeColorOff
 70
    22
177
     3
291
     1
 70
    58
 90
        2
176
     0
 90
        2
176
     0
 90
        0
176
     0
 90
        0
176
     0
 40
0.6
176
     0
 40
30.0
176
     0
 62
     7
420
 16777215
176
     0
 90
        1
176
     0
 90
        4
176
     0
 62
     7
176
     0
 62
   257
176
     0
 90
        1
176
     0
 90
        1
176
     0
 40
1.0
176
     0
 90
        8
176
     2
 62
     7
176
     0
 40
1.0
176
     0
 90
        1
176
     0
 90
        6
176
     0
 90
        2
176
     0
 62
     7
176
     0
 90
        5
176
     0
 90
        0
176
     0
 90
        0
176
     0
290
     0
176
     0
 90
        1
176
     0
 40
0.0
176
     0
 90
        0
176
     0
290
     0
176
     0
290
     1
176
     0
290
     1
176
     0
290
     0
176
     0
290
     0
176
     0
290
     0
176
     0
290
     0
176
     0
290
     0
176
     0
290
     0
176
     0
 90
       50
176
     0
 40
0.0
176
     0
 40
1.0
176
     0
 90
        0
176
     0
 62
    18
420
        0
176
     0
 90
       50
176
     0
 90
        3
176
     0
 62
     5
420
      255
176
     0
290
     0
176
     0
 90
       50
176
     0
 90
       50
176
     0
 90
       50
176
     0
290
     0
176
     0
 90
       50
176
     0
 62
   256
176
     0
 40
1.0
176
     0
 90
        2
176
     0
  1
strokes_ogs.tif
176
     0
290
     0
176
     0
 40
1.0
176
     0
 40
1.0
176
     0
  0
VISUALSTYLE
  5
39
102
{ACAD_REACTORS
330
2A
102
}
330
2A
100
AcDbVisualStyle
  2
Facepattern
 70
    15
177
     3
291
     1
 70
    58
 90
        2
176
     1
 90
        2
176
     1
 90
        0
176
     1
 90
        0
176
     1
 40
0.6
176
     1
 40
30.0
176
     1
 62
     7
420
 16777215
176
     1
 90
        1
176
     1
 90
        4
176
     1
 62
     7
176
     1
 62
   257
176
     1
 90
        1
176
     1
 90
        1
176
     1
 40
1.0
176
     1
 90
        8
176
     1
 62
     7
176
     1
 40
1.0
176
     1
 90
        1
176
     1
 90
        6
176
     1
 90
        2
176
     1
 62
     7
176
     1
 90
        5
176
     1
 90
        0
176
     1
 90
        0
176
     1
290
     0
176
     1
 90
        1
176
     1
 40
0.0
176
     1
 90
        0
176
     1
290
     0
176
     1
290
     1
176
     1
290
     1
176
     1
290
     0
176
     1
290
     0
176
     1
290
     0
176
     1
290
     0
176
     1
290
     0
176
     1
290
     0
176
     1
 90
       50
176
     1
 40
0.0
176
     1
 40
1.0
176
     1
 90
        0
176
     1
 62
    18
420
        0
176
     1
 90
       50
176
     1
 90
        3
176
     1
 62
     5
420
      255
176
     1
290
     0
176
     1
 90
       50
176
     1
 90
       50
176
     1
 90
       50
176
     1
290
     0
176
     1
 90
       50
176
     1
 62
   256
176
     0
 40
1.0
176
     0
 90
        2
176
     1
  1
strokes_ogs.tif
176
     1
290
     0
176
     1
 40
1.0
176
     1
 40
1.0
176
     1
  0
VISUALSTYLE
  5
2B
102
{ACAD_REACTORS
330
2A
102
}
330
2A
100
AcDbVisualStyle
  2
Flat
 70
     0
177
     3
291
     1
 70
    58
 90
        2
176
     1
 90
        1
176
     1
 90
        1
176
     1
 90
        2
176
     1
 40
0.6
176
     1
 40
30.0
176
     1
 62
     7
420
 16777215
176
     1
 90
        0
176
     1
 90
        0
176
     1
 62
     7
176
     1
 62
   257
176
     1
 90
        1
176
     1
 90
        1
176
     1
 40
1.0
176
     1
 90
        8
176
     1
 62
     7
176
     1
 40
1.0
176
     1
 90
        1
176
     1
 90
        6
176
     1
 90
        2
176
     1
 62
     7
176
     1
 90
        5
176
     1
 90
        0
176
     1
 90
        0
176
     1
290
     0
176
     1
 90
       13
176
     1
 40
0.0
176
     1
 90
        0
176
     1
290
     0
176
     1
290
     1
176
     1
290
     1
176
     1
290
     0
176
     1
290
     0
176
     1
290
     0
176
     1
290
     0
176
     1
290
     0
176
     1
290
     0
176
     1
 90
       50
176
     1
 40
0.0
176
     1
 40
1.0
176
     1
 90
        0
176
     1
 62
    18
420
        0
176
     1
 90
       50
176
     1
 90
        3
176
     1
 62
     5
420
      255
176
     1
290
     0
176
     1
 90
       50
176
     1
 90
       50
176
     1
 90
       50
176
     1
290
     0
176
     1
 90
       50
176
     1
 62
   256
176
     0
 40
1.0
176
     0
 90
        2
176
     1
  1
strokes_ogs.tif
176
     1
290
     0
176
     1
 40
1.0
176
     1
 40
1.0
176
     1
  0
VISUALSTYLE
  5
2C
102
{ACAD_REACTORS
330
2A
102
}
330
2A
100
AcDbVisualStyle
  2
FlatWithEdges
 70
     1
177
     3
291
     1
 70
    58
 90
        2
176
     1
 90
        1
176
     1
 90
        1
176
     1
 90
        2
176
     1
 40
0.6
176
     1
 40
30.0
176
     1
 62
     7
420
 16777215
176
     1
 90
        1
176
     1
 90
        0
176
     1
 62
     7
176
     1
 62
   257
176
     1
 90
        1
176
     1
 90
        1
176
     1
 40
1.0
176
     1
 90
        0
176
     1
 62
   257
176
     1
 40
1.0
176
     1
 90
        1
176
     1
 90
        6
176
     1
 90
        2
176
     1
 62
     7
176
     1
 90
        5
176
     1
 90
        0
176
     1
 90
        0
176
     1
290
     0
176
     1
 90
       13
176
     1
 40
0.0
176
     1
 90
        0
176
     1
290
     0
176
     1
290
     1
176
     1
290
     1
176
     1
290
     0
176
     1
290
     0
176
     1
290
     0
176
     1
290
     0
176
     1
290
     0
176
     1
290
     0
176
     1
 90
       50
176
     1
 40
0.0
176
     1
 40
1.0
176
     1
 90
        0
176
     1
 62
    18
420
        0
176
     1
 90
       50
176
     1
 90
        3
176
     1
 62
     5
420
      255
176
     1
290
     0
176
     1
 90
       50
176
     1
 90
       50
176
     1
 90
       50
176
     1
290
     0
176
     1
 90
       50
176
     1
 62
   256
176
     0
 40
1.0
176
     0
 90
        2
176
     1
  1
strokes_ogs.tif
176
     1
290
     0
176
     1
 40
1.0
176
     1
 40
1.0
176
     1
  0
VISUALSTYLE
  5
2D
102
{ACAD_REACTORS
330
2A
102
}
330
2A
100
AcDbVisualStyle
  2
Gouraud
 70
     2
177
     3
291
     1
 70
    58
 90
        2
176
     1
 90
        2
176
     1
 90
        1
176
     1
 90
        2
176
     1
 40
0.6
176
     1
 40
30.0
176
     1
 62
     7
420
 16777215
176
     1
 90
        0
176
     1
 90
        0
176
     1
 62
     7
176
     1
 62
   257
176
     1
 90
        1
176
     1
 90
        1
176
     1
 40
1.0
176
     1
 90
        0
176
     1
 62
     7
176
     1
 40
1.0
176
     1
 90
        1
176
     1
 90
        6
176
     1
 90
        2
176
     1
 62
     7
176
     1
 90
        5
176
     1
 90
        0
176
     1
 90
        0
176
     1
290
     0
176
     1
 90
       13
176
     1
 40
0.0
176
     1
 90
        0
176
     1
290
     0
176
     1
290
     1
176
     1
290
     1
176
     1
290
     0
176
     1
290
     0
176
     1
290
     0
176
     1
290
     0
176
     1
290
     0
176
     1
290
     0
176
     1
 90
       50
176
     1
 40
0.0
176
     1
 40
1.0
176
     1
 90
        0
176
     1
 62
    18
420
        0
176
     1
 90
       50
176
     1
 90
        3
176
     1
 62
     5
420
      255
176
     1
290
     0
176
     1
 90
       50
176
     1
 90
       50
176
     1
 90
       50
176
     1
290
     0
176
     1
 90
       50
176
     1
 62
   256
176
     0
 40
1.0
176
     0
 90
        2
176
     1
  1
strokes_ogs.tif
176
     1
290
     0
176
     1
 40
1.0
176
     1
 40
1.0
176
     1
  0
VISUALSTYLE
  5
2E
102
{ACAD_REACTORS
330
2A
102
}
330
2A
100
AcDbVisualStyle
  2
GouraudWithEdges
 70
     3
177
     3
291
     1
 70
    58
 90
        2
176
     1
 90
        2
176
     1
 90
        1
176
     1
 90
        2
176
     1
 40
0.6
176
     1
 40
30.0
176
     1
 62
     7
420
 16777215
176
     1
 90
        1
176
     1
 90
        0
176
     1
 62
     7
176
     1
 62
   257
176
     1
 90
        1
176
     1
 90
        1
176
     1
 40
1.0
176
     1
 90
        0
176
     1
 62
   257
176
     1
 40
1.0
176
     1
 90
        1
176
     1
 90
        6
176
     1
 90
        2
176
     1
 62
     7
176
     1
 90
        5
176
     1
 90
        0
176
     1
 90
        0
176
     1
290
     0
176
     1
 90
       13
176
     1
 40
0.0
176
     1
 90
        0
176
     1
290
     0
176
     1
290
     1
176
     1
290
     1
176
     1
290
     0
176
     1
290
     0
176
     1
290
     0
176
     1
290
     0
176
     1
290
     0
176
     1
290
     0
176
     1
 90
       50
176
     1
 40
0.0
176
     1
 40
1.0
176
     1
 90
        0
176
     1
 62
    18
420
        0
176
     1
 90
       50
176
     1
 90
        3
176
     1
 62
     5
420
      255
176
     1
290
     0
176
     1
 90
       50
176
     1
 90
       50
176
     1
 90
       50
176
     1
290
     0
176
     1
 90
       50
176
     1
 62
   256
176
     0
 40
1.0
176
     0
 90
        2
176
     1
  1
strokes_ogs.tif
176
     1
290
     0
176
     1
 40
1.0
176
     1
 40
1.0
176
     1
  0
VISUALSTYLE
  5
31
102
{ACAD_REACTORS
330
2A
102
}
330
2A
100
AcDbVisualStyle
  2
Hidden
 70
     6
177
     3
291
     0
 70
    58
 90
        1
176
     1
 90
        2
176
     1
 90
        2
176
     1
 90
        0
176
     1
 40
0.6
176
     1
 40
30.0
176
     1
 62
     7
420
 16777215
176
     1
 90
        2
176
     1
 90
        2
176
     1
 62
     7
176
     1
 62
   257
176
     1
 90
        2
176
     1
 90
        1
176
     1
 40
40.0
176
     1
 90
        0
176
     1
 62
   257
176
     1
 40
1.0
176
     1
 90
        1
176
     1
 90
        6
176
     1
 90
        2
176
     1
 62
     7
176
     1
 90
        3
176
     1
 90
        0
176
     1
 90
        0
176
     1
290
     0
176
     1
 90
        1
176
     1
 40
0.0
176
     1
 90
        0
176
     1
290
     0
176
     1
290
     1
176
     1
290
     1
176
     1
290
     0
176
     1
290
     0
176
     1
290
     0
176
     1
290
     0
176
     1
290
     0
176
     1
290
     0
176
     1
 90
       50
176
     1
 40
0.0
176
     1
 40
1.0
176
     1
 90
        0
176
     1
 62
    18
420
        0
176
     1
 90
       50
176
     1
 90
        3
176
     1
 62
     5
420
      255
176
     1
290
     0
176
     1
 90
       50
176
     1
 90
       50
176
     1
 90
       50
176
     1
290
     0
176
     1
 90
       50
176
     1
 62
   256
176
     0
 40
1.0
176
     0
 90
        2
176
     1
  1
strokes_ogs.tif
176
     1
290
     0
176
     1
 40
1.0
176
     1
 40
1.0
176
     1
  0
VISUALSTYLE
  5
3B
102
{ACAD_REACTORS
330
2A
102
}
330
2A
100
AcDbVisualStyle
  2
JitterOff
 70
    20
177
     3
291
     1
 70
    58
 90
        2
176
     0
 90
        2
176
     0
 90
        0
176
     0
 90
        0
176
     0
 40
0.6
176
     0
 40
30.0
176
     0
 62
     7
420
 16777215
176
     0
 90
        1
176
     0
 90
        4
176
     0
 62
     7
176
     0
 62
   257
176
     0
 90
        1
176
     0
 90
        1
176
     0
 40
1.0
176
     0
 90
       10
176
     2
 62
     7
176
     0
 40
1.0
176
     0
 90
        1
176
     0
 90
        6
176
     0
 90
        2
176
     0
 62
     7
176
     0
 90
        5
176
     0
 90
        0
176
     0
 90
        0
176
     0
290
     0
176
     0
 90
        1
176
     0
 40
0.0
176
     0
 90
        0
176
     0
290
     0
176
     0
290
     1
176
     0
290
     1
176
     0
290
     0
176
     0
290
     0
176
     0
290
     0
176
     0
290
     0
176
     0
290
     0
176
     0
290
     0
176
     0
 90
       50
176
     0
 40
0.0
176
     0
 40
1.0
176
     0
 90
        0
176
     0
 62
    18
420
        0
176
     0
 90
       50
176
     0
 90
        3
176
     0
 62
     5
420
      255
176
     0
290
     0
176
     0
 90
       50
176
     0
 90
       50
176
     0
 90
       50
176
     0
290
     0
176
     0
 90
       50
176
     0
 62
   256
176
     0
 40
1.0
176
     0
 90
        2
176
     0
  1
strokes_ogs.tif
176
     0
290
     0
176
     0
 40
1.0
176
     0
 40
1.0
176
     0
  0
VISUALSTYLE
  5
38
102
{ACAD_REACTORS
330
2A
102
}
330
2A
100
AcDbVisualStyle
  2
Linepattern
 70
    14
177
     3
291
     1
 70
    58
 90
        2
176
     1
 90
        2
176
     1
 90
        0
176
     1
 90
        0
176
     1
 40
0.6
176
     1
 40
30.0
176
     1
 62
     7
420
 16777215
176
     1
 90
        1
176
     1
 90
        4
176
     1
 62
     7
176
     1
 62
   257
176
     1
 90
        7
176
     1
 90
        7
176
     1
 40
1.0
176
     1
 90
        8
176
     1
 62
     7
176
     1
 40
1.0
176
     1
 90
        1
176
     1
 90
        6
176
     1
 90
        2
176
     1
 62
     7
176
     1
 90
        5
176
     1
 90
        0
176
     1
 90
        0
176
     1
290
     0
176
     1
 90
        1
176
     1
 40
0.0
176
     1
 90
        0
176
     1
290
     0
176
     1
290
     1
176
     1
290
     1
176
     1
290
     0
176
     1
290
     0
176
     1
290
     0
176
     1
290
     0
176
     1
290
     0
176
     1
290
     0
176
     1
 90
       50
176
     1
 40
0.0
176
     1
 40
1.0
176
     1
 90
        0
176
     1
 62
    18
420
        0
176
     1
 90
       50
176
     1
 90
        3
176
     1
 62
     5
420
      255
176
     1
290
     0
176
     1
 90
       50
176
     1
 90
       50
176
     1
 90
       50
176
     1
290
     0
176
     1
 90
       50
176
     1
 62
   256
176
     0
 40
1.0
176
     0
 90
        2
176
     1
  1
strokes_ogs.tif
176
     1
290
     0
176
     1
 40
1.0
176
     1
 40
1.0
176
     1
  0
VISUALSTYLE
  5
3C
102
{ACAD_REACTORS
330
2A
102
}
330
2A
100
AcDbVisualStyle
  2
OverhangOff
 70
    21
177
     3
291
     1
 70
    58
 90
        2
176
     0
 90
        2
176
     0
 90
        0
176
     0
 90
        0
176
     0
 40
0.6
176
     0
 40
30.0
176
     0
 62
     7
420
 16777215
176
     0
 90
        1
176
     0
 90
        4
176
     0
 62
     7
176
     0
 62
   257
176
     0
 90
        1
176
     0
 90
        1
176
     0
 40
1.0
176
     0
 90
        9
176
     2
 62
     7
176
     0
 40
1.0
176
     0
 90
        1
176
     0
 90
        6
176
     0
 90
        2
176
     0
 62
     7
176
     0
 90
        5
176
     0
 90
        0
176
     0
 90
        0
176
     0
290
     0
176
     0
 90
        1
176
     0
 40
0.0
176
     0
 90
        0
176
     0
290
     0
176
     0
290
     1
176
     0
290
     1
176
     0
290
     0
176
     0
290
     0
176
     0
290
     0
176
     0
290
     0
176
     0
290
     0
176
     0
290
     0
176
     0
 90
       50
176
     0
 40
0.0
176
     0
 40
1.0
176
     0
 90
        0
176
     0
 62
    18
420
        0
176
     0
 90
       50
176
     0
 90
        3
176
     0
 62
     5
420
      255
176
     0
290
     0
176
     0
 90
       50
176
     0
 90
       50
176
     0
 90
       50
176
     0
290
     0
176
     0
 90
       50
176
     0
 62
   256
176
     0
 40
1.0
176
     0
 90
        2
176
     0
  1
strokes_ogs.tif
176
     0
290
     0
176
     0
 40
1.0
176
     0
 40
1.0
176
     0
  0
VISUALSTYLE
  5
33
102
{ACAD_REACTORS
330
2A
102
}
330
2A
100
AcDbVisualStyle
  2
Realistic
 70
     8
177
     3
291
     0
 70
    58
 90
        2
176
     1
 90
        3
176
     1
 90
        0
176
     1
 90
        2
176
     1
 40
0.6
176
     1
 40
30.0
176
     1
 62
     7
420
 16777215
176
     1
 90
        0
176
     1
 90
        0
176
     1
 62
     7
176
     1
 62
   257
176
     1
 90
        1
176
     1
 90
        1
176
     1
 40
1.0
176
     1
 90
        8
176
     1
 62
   257
176
     1
 40
1.0
176
     1
 90
        1
176
     1
 90
        6
176
     1
 90
        2
176
     1
 62
     7
176
     1
 90
        3
176
     1
 90
        0
176
     1
 90
        0
176
     1
290
     0
176
     1
 90
       13
176
     1
 40
0.0
176
     1
 90
        0
176
     1
290
     0
176
     1
290
     1
176
     1
290
     1
176
     1
290
     0
176
     1
290
     0
176
     1
290
     0
176
     1
290
     0
176
     1
290
     0
176
     1
290
     0
176
     1
 90
       50
176
     1
 40
0.0
176
     1
 40
1.0
176
     1
 90
        0
176
     1
 62
    18
420
        0
176
     1
 90
       50
176
     1
 90
        3
176
     1
 62
     5
420
      255
176
     1
290
     0
176
     1
 90
       50
176
     1
 90
       50
176
     1
 90
       50
176
     1
290
     0
176
     1
 90
       50
176
     1
 62
   256
176
     0
 40
1.0
176
     0
 90
        2
176
     1
  1
strokes_ogs.tif
176
     1
290
     0
176
     1
 40
1.0
176
     1
 40
1.0
176
     1
  0
VISUALSTYLE
  5
42
102
{ACAD_REACTORS
330
2A
102
}
330
2A
100
AcDbVisualStyle
  2
Shaded
 70
    27
177
     3
291
     0
 70
    58
 90
        2
176
     1
 90
        2
176
     1
 90
        1
176
     1
 90
        2
176
     1
 40
0.6
176
     1
 40
30.0
176
     1
 62
     7
420
 16777215
176
     1
 90
        0
176
     1
 90
        4
176
     1
 62
     7
176
     1
 62
   257
176
     1
 90
        1
176
     1
 90
        1
176
     1
 40
1.0
176
     1
 90
        8
176
     1
 62
   257
176
     1
 40
1.0
176
     1
 90
        1
176
     1
 90
        6
176
     1
 90
        2
176
     1
 62
     8
420
  7895160
176
     1
 90
        3
176
     1
 90
        0
176
     1
 90
        0
176
     1
290
     0
176
     1
 90
        5
176
     1
 40
0.0
176
     1
 90
        0
176
     1
290
     0
176
     1
290
     1
176
     1
290
     1
176
     1
290
     0
176
     1
290
     0
176
     1
290
     0
176
     1
290
     0
176
     1
290
     0
176
     1
290
     0
176
     1
 90
       50
176
     1
 40
0.0
176
     1
 40
1.0
176
     1
 90
        0
176
     1
 62
    18
420
        0
176
     1
 90
       50
176
     1
 90
        3
176
     1
 62
     5
420
      255
176
     1
290
     0
176
     1
 90
       50
176
     1
 90
       50
176
     1
 90
       50
176
     1
290
     0
176
     1
 90
       50
176
     1
 62
   256
176
     0
 40
1.0
176
     0
 90
        2
176
     1
  1
strokes_ogs.tif
176
     1
290
     0
176
     1
 40
1.0
176
     1
 40
1.0
176
     1
  0
VISUALSTYLE
  5
41
102
{ACAD_REACTORS
330
2A
102
}
330
2A
100
AcDbVisualStyle
  2
Shaded with edges
 70
    26
177
     3
291
     0
 70
    58
 90
        2
176
     1
 90
        2
176
     1
 90
        1
176
     1
 90
        2
176
     1
 40
0.6
176
     1
 40
30.0
176
     1
 62
     7
420
 16777215
176
     1
 90
        1
176
     1
 90
       10
176
     1
 62
     7
176
     1
 62
   257
176
     1
 90
        2
176
     1
 90
        1
176
     1
 40
1.0
176
     1
 90
        8
176
     1
 62
   257
176
     1
 40
1.0
176
     1
 90
        1
176
     1
 90
        6
176
     1
 90
        2
176
     1
 62
     7
176
     1
 90
        3
176
     1
 90
        0
176
     1
 90
        0
176
     1
290
     0
176
     1
 90
        5
176
     1
 40
0.0
176
     1
 90
        0
176
     1
290
     0
176
     1
290
     1
176
     1
290
     1
176
     1
290
     0
176
     1
290
     0
176
     1
290
     0
176
     1
290
     0
176
     1
290
     0
176
     1
290
     0
176
     1
 90
       50
176
     1
 40
0.0
176
     1
 40
1.0
176
     1
 90
        0
176
     1
 62
    18
420
        0
176
     1
 90
       50
176
     1
 90
        3
176
     1
 62
     5
420
      255
176
     1
290
     0
176
     1
 90
       50
176
     1
 90
       50
176
     1
 90
       50
176
     1
290
     0
176
     1
 90
       50
176
     1
 62
   256
176
     0
 40
1.0
176
     0
 90
        2
176
     1
  1
strokes_ogs.tif
176
     1
290
     0
176
     1
 40
1.0
176
     1
 40
1.0
176
     1
  0
VISUALSTYLE
  5
3E
102
{ACAD_REACTORS
330
2A
102
}
330
2A
100
AcDbVisualStyle
  2
Shades of Gray
 70
    23
177
     3
291
     0
 70
    58
 90
        2
176
     1
 90
        2
176
     1
 90
        3
176
     1
 90
        0
176
     1
 40
0.6
176
     1
 40
30.0
176
     1
 62
     7
420
 16777215
176
     1
 90
        2
176
     1
 90
        2
176
     1
 62
     7
176
     1
 62
     7
176
     1
 90
        1
176
     1
 90
        1
176
     1
 40
40.0
176
     1
 90
        8
176
     1
 62
     7
176
     1
 40
1.0
176
     1
 90
        1
176
     1
 90
        6
176
     1
 90
        2
176
     1
 62
     7
176
     1
 90
        3
176
     1
 90
        0
176
     1
 90
        0
176
     1
290
     0
176
     1
 90
        1
176
     1
 40
0.0
176
     1
 90
        0
176
     1
290
     0
176
     1
290
     1
176
     1
290
     1
176
     1
290
     0
176
     1
290
     0
176
     1
290
     0
176
     1
290
     0
176
     1
290
     0
176
     1
290
     0
176
     1
 90
       50
176
     1
 40
0.0
176
     1
 40
1.0
176
     1
 90
        0
176
     1
 62
    18
420
        0
176
     1
 90
       50
176
     1
 90
        3
176
     1
 62
     5
420
      255
176
     1
290
     0
176
     1
 90
       50
176
     1
 90
       50
176
     1
 90
       50
176
     1
290
     0
176
     1
 90
       50
176
     1
 62
   256
176
     0
 40
1.0
176
     0
 90
        2
176
     1
  1
strokes_ogs.tif
176
     1
290
     0
176
     1
 40
1.0
176
     1
 40
1.0
176
     1
  0
VISUALSTYLE
  5
3F
102
{ACAD_REACTORS
330
2A
102
}
330
2A
100
AcDbVisualStyle
  2
Sketchy
 70
    24
177
     3
291
     0
 70
    58
 90
        1
176
     1
 90
        2
176
     1
 90
        2
176
     1
 90
        0
176
     1
 40
0.6
176
     1
 40
30.0
176
     1
 62
     7
420
 16777215
176
     1
 90
        2
176
     1
 90
        2
176
     1
 62
     7
176
     1
 62
     7
176
     1
 90
        1
176
     1
 90
        1
176
     1
 40
40.0
176
     1
 90
       11
176
     1
 62
     7
176
     1
 40
1.0
176
     1
 90
        1
176
     1
 90
        6
176
     1
 90
        2
176
     1
 62
     7
176
     1
 90
        6
176
     1
 90
        0
176
     1
 90
        0
176
     1
290
     0
176
     1
 90
        1
176
     1
 40
0.0
176
     1
 90
        0
176
     1
290
     0
176
     1
290
     1
176
     1
290
     1
176
     1
290
     0
176
     1
290
     0
176
     1
290
     0
176
     1
290
     0
176
     1
290
     0
176
     1
290
     0
176
     1
 90
       50
176
     1
 40
0.0
176
     1
 40
1.0
176
     1
 90
        0
176
     1
 62
    18
420
        0
176
     1
 90
       50
176
     1
 90
        3
176
     1
 62
     5
420
      255
176
     1
290
     0
176
     1
 90
       50
176
     1
 90
       50
176
     1
 90
       50
176
     1
290
     0
176
     1
 90
       50
176
     1
 62
   256
176
     0
 40
1.0
176
     0
 90
        2
176
     1
  1
strokes_ogs.tif
176
     1
290
     0
176
     1
 40
1.0
176
     1
 40
1.0
176
     1
  0
VISUALSTYLE
  5
37
102
{ACAD_REACTORS
330
2A
102
}
330
2A
100
AcDbVisualStyle
  2
Thicken
 70
    13
177
     3
291
     1
 70
    58
 90
        2
176
     1
 90
        2
176
     1
 90
        0
176
     1
 90
        0
176
     1
 40
0.6
176
     1
 40
30.0
176
     1
 62
     7
420
 16777215
176
     1
 90
        1
176
     1
 90
        4
176
     1
 62
     7
176
     1
 62
   257
176
     1
 90
        1
176
     1
 90
        1
176
     1
 40
1.0
176
     1
 90
       12
176
     1
 62
     7
176
     1
 40
1.0
176
     1
 90
        1
176
     1
 90
        6
176
     1
 90
        2
176
     1
 62
     7
176
     1
 90
        5
176
     1
 90
        0
176
     1
 90
        0
176
     1
290
     0
176
     1
 90
        1
176
     1
 40
0.0
176
     1
 90
        0
176
     1
290
     0
176
     1
290
     1
176
     1
290
     1
176
     1
290
     0
176
     1
290
     0
176
     1
290
     0
176
     1
290
     0
176
     1
290
     0
176
     1
290
     0
176
     1
 90
       50
176
     1
 40
0.0
176
     1
 40
1.0
176
     1
 90
        0
176
     1
 62
    18
420
        0
176
     1
 90
       50
176
     1
 90
        3
176
     1
 62
     5
420
      255
176
     1
290
     0
176
     1
 90
       50
176
     1
 90
       50
176
     1
 90
       50
176
     1
290
     0
176
     1
 90
       50
176
     1
 62
   256
176
     0
 40
1.0
176
     0
 90
        2
176
     1
  1
strokes_ogs.tif
176
     1
290
     0
176
     1
 40
1.0
176
     1
 40
1.0
176
     1
  0
VISUALSTYLE
  5
30
102
{ACAD_REACTORS
330
2A
102
}
330
2A
100
AcDbVisualStyle
  2
Wireframe
 70
     5
177
     3
291
     0
 70
    58
 90
        0
176
     1
 90
        2
176
     1
 90
        0
176
     1
 90
        0
176
     1
 40
0.6
176
     1
 40
30.0
176
     1
 62
     7
420
 16777215
176
     1
 90
        1
176
     1
 90
        4
176
     1
 62
     7
176
     1
 62
   257
176
     1
 90
        1
176
     1
 90
        1
176
     1
 40
1.0
176
     1
 90
        0
176
     1
 62
   257
176
     1
 40
1.0
176
     1
 90
        1
176
     1
 90
        6
176
     1
 90
        2
176
     1
 62
     7
176
     1
 90
        3
176
     1
 90
        0
176
     1
 90
        0
176
     1
290
     0
176
     1
 90
        1
176
     1
 40
0.0
176
     1
 90
        0
176
     1
290
     0
176
     1
290
     1
176
     1
290
     1
176
     1
290
     0
176
     1
290
     0
176
     1
290
     0
176
     1
290
     0
176
     1
290
     0
176
     1
290
     0
176
     1
 90
       50
176
     1
 40
0.0
176
     1
 40
1.0
176
     1
 90
        0
176
     1
 62
    18
420
        0
176
     1
 90
       50
176
     1
 90
        3
176
     1
 62
     5
420
      255
176
     1
290
     0
176
     1
 90
       50
176
     1
 90
       50
176
     1
 90
       50
176
     1
290
     0
176
     1
 90
       50
176
     1
 62
   256
176
     0
 40
1.0
176
     0
 90
        2
176
     1
  1
strokes_ogs.tif
176
     1
290
     0
176
     1
 40
1.0
176
     1
 40
1.0
176
     1
  0
VISUALSTYLE
  5
40
102
{ACAD_REACTORS
330
2A
102
}
330
2A
100
AcDbVisualStyle
  2
X-Ray
 70
    25
177
     3
291
     0
 70
    58
 90
        2
176
     1
 90
        2
176
     1
 90
        1
176
     1
 90
        1
176
     1
 40
0.5
176
     1
 40
30.0
176
     1
 62
     7
420
 16777215
176
     1
 90
        1
176
     1
 90
        0
176
     1
 62
     7
176
     1
 62
   257
176
     1
 90
        1
176
     1
 90
        1
176
     1
 40
1.0
176
     1
 90
        8
176
     1
 62
     7
176
     1
 40
1.0
176
     1
 90
        1
176
     1
 90
        6
176
     1
 90
        2
176
     1
 62
     7
176
     1
 90
        3
176
     1
 90
        0
176
     1
 90
        0
176
     1
290
     0
176
     1
 90
       13
176
     1
 40
0.0
176
     1
 90
        0
176
     1
290
     0
176
     1
290
     1
176
     1
290
     1
176
     1
290
     0
176
     1
290
     0
176
     1
290
     0
176
     1
290
     0
176
     1
290
     0
176
     1
290
     0
176
     1
 90
       50
176
     1
 40
0.0
176
     1
 40
1.0
176
     1
 90
        0
176
     1
 62
    18
420
        0
176
     1
 90
       50
176
     1
 90
        3
176
     1
 62
     5
420
      255
176
     1
290
     0
176
     1
 90
       50
176
     1
 90
       50
176
     1
 90
       50
176
     1
290
     0
176
     1
 90
       50
176
     1
 62
   256
176
     0
 40
1.0
176
     0
 90
        2
176
     1
  1
strokes_ogs.tif
176
     1
290
     0
176
     1
 40
1.0
176
     1
 40
1.0
176
     1
  0
DICTIONARYVAR
  5
1F5
102
{ACAD_REACTORS
330
1F4
102
}
330
1F4
100
DictionaryVariables
280
     0
  1
1:1
  0
DICTIONARYVAR
  5
1FA
102
{ACAD_REACTORS
330
1F4
102
}
330
1F4
100
DictionaryVariables
280
     0
  1
Standard
  0
DICTIONARYVAR
  5
1F9
102
{ACAD_REACTORS
330
1F4
102
}
330
1F4
100
DictionaryVariables
280
     0
  1
Standard
  0
DICTIONARY
  5
1F6
330
6A
100
AcDbDictionary
280
     1
281
     1
  3
ACAD_ROUNDTRIP_2008_TABLESTYLE_CELLSTYLEMAP
360
1F7
  0
CELLSTYLEMAP
  5
1F7
102
{ACAD_REACTORS
330
1F6
102
}
330
1F6
100
AcDbCellStyleMap
 90
        3
300
CELLSTYLE
  1
TABLEFORMAT_BEGIN
 90
        5
170
     1
 91
        0
 92
    32768
 62
   257
 93
        1
300
CONTENTFORMAT
  1
CONTENTFORMAT_BEGIN
 90
        0
 91
        0
 92
        4
 93
        0
300

 40
0.0
140
1.0
 94
        5
 62
     0
340
11
144
6.0
309
CONTENTFORMAT_END
171
     1
301
MARGIN
  1
CELLMARGIN_BEGIN
 40
1.5
 40
1.5
 40
1.5
 40
1.5
 40
1.5
 40
1.5
309
CELLMARGIN_END
 94
        6
 95
        1
302
GRIDFORMAT
  1
GRIDFORMAT_BEGIN
 90
        0
 91
        1
 62
     0
 92
       -2
340
14
 93
        0
 40
0.045
309
GRIDFORMAT_END
 95
        2
302
GRIDFORMAT
  1
GRIDFORMAT_BEGIN
 90
        0
 91
        1
 62
     0
 92
       -2
340
14
 93
        0
 40
0.045
309
GRIDFORMAT_END
 95
        4
302
GRIDFORMAT
  1
GRIDFORMAT_BEGIN
 90
        0
 91
        1
 62
     0
 92
       -2
340
14
 93
        0
 40
0.045
309
GRIDFORMAT_END
 95
        8
302
GRIDFORMAT
  1
GRIDFORMAT_BEGIN
 90
        0
 91
        1
 62
     0
 92
       -2
340
14
 93
        0
 40
0.045
309
GRIDFORMAT_END
 95
       16
302
GRIDFORMAT
  1
GRIDFORMAT_BEGIN
 90
        0
 91
        1
 62
     0
 92
       -2
340
14
 93
        0
 40
0.045
309
GRIDFORMAT_END
 95
       32
302
GRIDFORMAT
  1
GRIDFORMAT_BEGIN
 90
        0
 91
        1
 62
     0
 92
       -2
340
14
 93
        0
 40
0.045
309
GRIDFORMAT_END
309
TABLEFORMAT_END
  1
CELLSTYLE_BEGIN
 90
        1
 91
        1
300
_TITLE
309
CELLSTYLE_END
300
CELLSTYLE
  1
TABLEFORMAT_BEGIN
 90
        5
170
     1
 91
        0
 92
        0
 62
   257
 93
        1
300
CONTENTFORMAT
  1
CONTENTFORMAT_BEGIN
 90
        0
 91
        0
 92
        4
 93
        0
300

 40
0.0
140
1.0
 94
        5
 62
     0
340
11
144
4.5
309
CONTENTFORMAT_END
171
     1
301
MARGIN
  1
CELLMARGIN_BEGIN
 40
1.5
 40
1.5
 40
1.5
 40
1.5
 40
1.5
 40
1.5
309
CELLMARGIN_END
 94
        6
 95
        1
302
GRIDFORMAT
  1
GRIDFORMAT_BEGIN
 90
        0
 91
        1
 62
     0
 92
       -2
340
14
 93
        0
 40
0.045
309
GRIDFORMAT_END
 95
        2
302
GRIDFORMAT
  1
GRIDFORMAT_BEGIN
 90
        0
 91
        1
 62
     0
 92
       -2
340
14
 93
        0
 40
0.045
309
GRIDFORMAT_END
 95
        4
302
GRIDFORMAT
  1
GRIDFORMAT_BEGIN
 90
        0
 91
        1
 62
     0
 92
       -2
340
14
 93
        0
 40
0.045
309
GRIDFORMAT_END
 95
        8
302
GRIDFORMAT
  1
GRIDFORMAT_BEGIN
 90
        0
 91
        1
 62
     0
 92
       -2
340
14
 93
        0
 40
0.045
309
GRIDFORMAT_END
 95
       16
302
GRIDFORMAT
  1
GRIDFORMAT_BEGIN
 90
        0
 91
        1
 62
     0
 92
       -2
340
14
 93
        0
 40
0.045
309
GRIDFORMAT_END
 95
       32
302
GRIDFORMAT
  1
GRIDFORMAT_BEGIN
 90
        0
 91
        1
 62
     0
 92
       -2
340
14
 93
        0
 40
0.045
309
GRIDFORMAT_END
309
TABLEFORMAT_END
  1
CELLSTYLE_BEGIN
 90
        2
 91
        1
300
_HEADER
309
CELLSTYLE_END
300
CELLSTYLE
  1
TABLEFORMAT_BEGIN
 90
        5
170
     1
 91
        0
 92
        0
 62
   257
 93
        1
300
CONTENTFORMAT
  1
CONTENTFORMAT_BEGIN
 90
        0
 91
        0
 92
        4
 93
        0
300

 40
0.0
140
1.0
 94
        2
 62
     0
340
11
144
4.5
309
CONTENTFORMAT_END
171
     1
301
MARGIN
  1
CELLMARGIN_BEGIN
 40
1.5
 40
1.5
 40
1.5
 40
1.5
 40
1.5
 40
1.5
309
CELLMARGIN_END
 94
        6
 95
        1
302
GRIDFORMAT
  1
GRIDFORMAT_BEGIN
 90
        0
 91
        1
 62
     0
 92
       -2
340
14
 93
        0
 40
0.045
309
GRIDFORMAT_END
 95
        2
302
GRIDFORMAT
  1
GRIDFORMAT_BEGIN
 90
        0
 91
        1
 62
     0
 92
       -2
340
14
 93
        0
 40
0.045
309
GRIDFORMAT_END
 95
        4
302
GRIDFORMAT
  1
GRIDFORMAT_BEGIN
 90
        0
 91
        1
 62
     0
 92
       -2
340
14
 93
        0
 40
0.045
309
GRIDFORMAT_END
 95
        8
302
GRIDFORMAT
  1
GRIDFORMAT_BEGIN
 90
        0
 91
        1
 62
     0
 92
       -2
340
14
 93
        0
 40
0.045
309
GRIDFORMAT_END
 95
       16
302
GRIDFORMAT
  1
GRIDFORMAT_BEGIN
 90
        0
 91
        1
 62
     0
 92
       -2
340
14
 93
        0
 40
0.045
309
GRIDFORMAT_END
 95
       32
302
GRIDFORMAT
  1
GRIDFORMAT_BEGIN
 90
        0
 91
        1
 62
     0
 92
       -2
340
14
 93
        0
 40
0.045
309
GRIDFORMAT_END
309
TABLEFORMAT_END
  1
CELLSTYLE_BEGIN
 90
        3
 91
        2
300
_DATA
309
CELLSTYLE_END
  0
ENDSEC
  0
EOF
